Cifras e Tablaturas
Avril Lavigne

Avril Lavigne

Losing Grip

Cifras Cancelar Versão de Impressão Print

Avril Lavigne - Losing Grip

Tom:

  			Intro/Verse

Are you aware of what you make me feel,baby
Right now I feel invisible to you,like I'm not real
Didn't you feel me lock my arms around you 
Why'd you turn away?
Here's what I have to say I was left to cry there,
waiting outside there grinning with a lost stare
That's when I decided
Eb|------0-0-------3-3--|------0-0-------3-3--|
Bb|------0-0-------3-3--|------0-0-------3-3--|
Gb|------9-9-------5-5--|------7-7-------5-5--|
Db|------9-9-------5-5--|------7-7-------5-5--|
Ab|--7---7-7---3---3-3--|--5---5-5---3---3-3--|
Db|--7---7-7---3---3-3--|--5---5-5---3---3-3-

REFRÃO
Why   should I care
Cause you weren't there when I  was scared I was so alone
You, you need to listen I'm starting to trip,
I'm losing my grip and I'm in this thing alone
Eb|-------------------------------------------------|
Bb|-------------------------------------------------|
Gb|-------------------------------------------------|
Db|--9----9---5---5-5---5-5--5---5---5---5-5---5-5--|
Ab|--7----7---2---2-2---2-2--3---3---2---2-2---2-2--|
Db|--7----7---2---2-2---2-2--3---3---2---2-2---2-2--|

Eb|---------------------------------------------|
Bb|---------------------------------------------|
Gb|---------------------------------------------|
Db|--9----9---5---5-5---5-5--5---5---7---7---7--|
Ab|--7----7---2---2-2---2-2--3---3---0---0---0--|
Db|--7----7---2---2-2---2-2--3---3---0---0---0--|

Am I just some chick you place beside you to take somebody's place
When you turn around can you recognize my face you used to love me,
you used to hug me 
But that wasn't the case
Everything wasn't ok I was left to cry there 
waiting outside there grinning with a lost stare
That's when I decided
Eb|------0-0-------3-3--|------0-0-------3-3--|
Bb|------0-0-------3-3--|------0-0-------3-3--|
Gb|------9-9-------5-5--|------7-7-------5-5--|
Db|------9-9-------5-5--|------7-7-------5-5--|
Ab|--7---7-7---3---3-3--|--5---5-5---3---3-3--|
Db|--7---7-7---3---3-3--|--5---5-5---3---3-3-
*REFRÃO

Cryin' out loud I'm cryin out loud
Cryin' out loud I'm cryin out loud

Open your eyes
Open up wide
Why should I care
Cuz you weren't there
when I was scared I was so alone Why should I care
Cuz you weren't there when I was scared I was so alone 
why should I care
If you don't care then I don't care were not going newhere
Why should I care cuz you weren't there when I was scared I was so alone
Why should I care If you don't care then I don't care were not going newhere

Correção: Kamila ([email protected])
    	
fixar
fixar inscrever-se

enviado porenviado por: anônimo
cifra enviadaCorrigida por: sem correções
logo top cifrasComente
ico música do artistaMúsicas deste artista
ico curtiuCurtiu?
ico destaqueDestaque
Petaxxon Comunicação Online

Cifras.com.br - Melhor e mais completo site de cifras e tablaturas do Brasil Mais de 1 milhão de acordes de músicas cadastradas desde 2003
As informações contidas no nosso site são colaborações de seus usuários e podem conter erros, sendo assim, não nos responsabilizamos sobre nenhuma destas.

close
menos
mais
close
Cor dos acordes:

Cor da letra:

close
Alinhar acordes a direita Alinhar acordes a esquerda Alinhar acordes em baixo Alinhar acordes no topo
close
  Mostrar todos os acordes Esconder acordes muito fáceis Esconder acordes fáceis Esconder acordes intermediários
redimensionar
glossário