Cifras e Tablaturas
Awolnation

Awolnation

Holy Roller

Cifras Cancelar Versão de Impressão
cifras

Awolnation - Holy Roller

fixar na tela  
Exibindo: vídeo-aula ver clipes redimensionar
  
Intro Melodic Piano Line/Riff 


e|--------------------------------|     
B|--------------------------------|     
G|--10-9-10-9------8-10-8-(10)----| 
D|------------10--------------10--|     
A|--------------------------------|     
E|--------------------------------|(x3) 

e|--------------------------------|     
B|--------------------------------|     
G|--10-9-10-9------8-10-8---------| 
D|------------10------------------|     
A|--------------------------------|     
E|--------------------------------| 


Intro Guitar 

           F              C                F           C 
e|---------------1-----------------0----------------1---------------0--------| 
B|---------------1-----------------1----------------1---------------1--------| 
G|------------2-----------------0----------------2---------------0-----------| 
D|---------3-----------------2----------------3---------------2--------------| 
A|------------------------3--------------------------------3-----------------| 
E|------1----------------------------------1---------------------------------| 

           F              C                Am           E 
e|---------------1-----------------0----------------0---------------0--------| 
B|---------------1-----------------1----------------1---------------0--------| 
G|------------2-----------------0----------------2---------------1-----------| 
D|---------3-----------------2----------------2---------------2--------------| 
A|------------------------3----------------0---------------------------------| 
E|------1--------------------------------------------------0-----------------| 




Verse 

           Hold  your head up high,                 everyone can see 

           F              C                F           C 
e|---------------1-----------------0----------------1---------------0--------| 
B|---------------1-----------------1----------------1---------------1--------| 
G|------------2-----------------0----------------2---------------0-----------| 
D|---------3-----------------2----------------3---------------2--------------| 
A|------------------------3--------------------------------3-----------------| 
E|------1----------------------------------1---------------------------------| 

          Not afraid that          I----           need your love 
           F              C                Am           E 
e|---------------1-----------------0----------------0---------------0--------| 
B|---------------1-----------------1----------------1---------------0--------| 
G|------------2-----------------0----------------2---------------1-----------| 
D|---------3-----------------2----------------2---------------2--------------| 
A|------------------------3----------------0---------------------------------| 
E|------1--------------------------------------------------0-----------------| 


           Raining from    my  eyes,            crashing at my knees 

           F              C                F           C 
e|---------------1-----------------0----------------1---------------0--------| 
B|---------------1-----------------1----------------1---------------1--------| 
G|------------2-----------------0----------------2---------------0-----------| 
D|---------3-----------------2----------------3---------------2--------------| 
A|------------------------3--------------------------------3-----------------| 
E|------1----------------------------------1---------------------------------| 

          Not afraid that          I----           need  your   love 
           F              C                Am           E 
e|---------------1-----------------0----------------0---------------0--------| 
B|---------------1-----------------1----------------1---------------0--------| 
G|------------2-----------------0----------------2---------------1-----------| 
D|---------3-----------------2----------------2---------------2--------------| 
A|------------------------3----------------0---------------------------------| 
E|------1--------------------------------------------------0-----------------| 



Chorus 

           Holy...                           Roller...  

           F              C                F           C 
e|---------------1-----------------0----------------1---------------0--------| 
B|---------------1-----------------1----------------1---------------1--------| 
G|------------2-----------------0----------------2---------------0-----------| 
D|---------3-----------------2----------------3---------------2--------------| 
A|------------------------3--------------------------------3-----------------| 
E|------1----------------------------------1---------------------------------| 

           blow...        me...                          over... 

           F              C                Am           E 
e|---------------1-----------------0----------------0---------------0--------| 
B|---------------1-----------------1----------------1---------------0--------| 
G|------------2-----------------0----------------2---------------1-----------| 
D|---------3-----------------2----------------2---------------2--------------| 
A|------------------------3----------------0---------------------------------| 
E|------1--------------------------------------------------0-----------------| 

    ^ ^ ^ 
(Chorus is played twice (x2) the second time has background vocals) 


Repeat Intro 


Verse 
      
  
           Wouldn’t  it   be    nice,         drifting  out  to   sea 

           F              C                F           C 
e|---------------1-----------------0----------------1---------------0--------| 
B|---------------1-----------------1----------------1---------------1--------| 
G|------------2-----------------0----------------2---------------0-----------| 
D|---------3-----------------2----------------3---------------2--------------| 
A|------------------------3--------------------------------3-----------------| 
E|------1----------------------------------1---------------------------------| 

         With  my    swollen    eyes,  I----    need  your   love 
           F              C                Am           E 
e|---------------1-----------------0----------------0---------------0--------| 
B|---------------1-----------------1----------------1---------------0--------| 
G|------------2-----------------0----------------2---------------1-----------| 
D|---------3-----------------2----------------2---------------2--------------| 
A|------------------------3----------------0---------------------------------| 
E|------1--------------------------------------------------0-----------------| 

        Tell  me  where  you  hide,        tell  you  where  I  bleed 
           F              C                F           C 
e|---------------1-----------------0----------------1---------------0--------| 
B|---------------1-----------------1----------------1---------------1--------| 
G|------------2-----------------0----------------2---------------0-----------| 
D|---------3-----------------2----------------3---------------2--------------| 
A|------------------------3--------------------------------3-----------------| 
E|------1----------------------------------1---------------------------------| 

         Maybe   I’m    too    shy-I-I---    need  your   love 
           F              C                Am           E 
e|---------------1-----------------0----------------0---------------0--------| 
B|---------------1-----------------1----------------1---------------0--------| 
G|------------2-----------------0----------------2---------------1-----------| 
D|---------3-----------------2----------------2---------------2--------------| 
A|------------------------3----------------0---------------------------------| 
E|------1--------------------------------------------------0-----------------| 


Chorus (x2) 

           Holy...                           Roller...  

           F              C                F           C 
e|---------------1-----------------0----------------1---------------0--------| 
B|---------------1-----------------1----------------1---------------1--------| 
G|------------2-----------------0----------------2---------------0-----------| 
D|---------3-----------------2----------------3---------------2--------------| 
A|------------------------3--------------------------------3-----------------| 
E|------1----------------------------------1---------------------------------| 

           blow...        me...                          over... 

           F              C                Am           E 
e|---------------1-----------------0----------------0---------------0--------| 
B|---------------1-----------------1----------------1---------------0--------| 
G|------------2-----------------0----------------2---------------1-----------| 
D|---------3-----------------2----------------2---------------2--------------| 
A|------------------------3----------------0---------------------------------| 
E|------1--------------------------------------------------0-----------------| 


           Ahhhh-ahhhh-ahhh-ah                Ahhhh-ahhhh-ahhh-ah  

           F              C                F           C 
e|---------------1-----------------0----------------1---------------0--------| 
B|---------------1-----------------1----------------1---------------1--------| 
G|------------2-----------------0----------------2---------------0-----------| 
D|---------3-----------------2----------------3---------------2--------------| 
A|------------------------3--------------------------------3-----------------| 
E|------1----------------------------------1---------------------------------| 

           Ahhhh-ahhhh-ahhh-ah                    Ahhhh-ahhhh-ahhh-ahh... 

           F              C                Am           E 
e|---------------1-----------------0----------------0---------------0--------| 
B|---------------1-----------------1----------------1---------------0--------| 
G|------------2-----------------0----------------2---------------1-----------| 
D|---------3-----------------2----------------2---------------2--------------| 
A|------------------------3----------------0---------------------------------| 
E|------1--------------------------------------------------0-----------------| 


Chorus (x2) 

           Holy...                           Roller...  

           F              C                F           C 
e|---------------1-----------------0----------------1---------------0--------| 
B|---------------1-----------------1----------------1---------------1--------| 
G|------------2-----------------0----------------2---------------0-----------| 
D|---------3-----------------2----------------3---------------2--------------| 
A|------------------------3--------------------------------3-----------------| 
E|------1----------------------------------1---------------------------------| 

           blow...        me...                          over... 

           F              C                Am           E 
e|---------------1-----------------0----------------0---------------0--------| 
B|---------------1-----------------1----------------1---------------0--------| 
G|------------2-----------------0----------------2---------------1-----------| 
D|---------3-----------------2----------------2---------------2--------------| 
A|------------------------3----------------0---------------------------------| 
E|------1--------------------------------------------------0-----------------| 


Outro 

Repeat intro Melodic Piano Line/Riff 

               (x3)                            4th time 
e|--------------------------------|--------------------------------|     
B|--------------------------------|--------------------------------|     
G|--10-9-10-9------8-10-8-(10)----|--10-9-10-9------8-10-8---------|    
D|------------10--------------10--|------------10------------------|    
A|--------------------------------|--------------------------------|    
E|--------------------------------|--------------------------------|   


Guitar (+drums) 

          
           F              C                F           C 
e|---------------1-----------------0----------------1---------------0--------| 
B|---------------1-----------------1----------------1---------------1--------| 
G|------------2-----------------0----------------2---------------0-----------| 
D|---------3-----------------2----------------3---------------2--------------| 
A|------------------------3--------------------------------3-----------------| 
E|------1----------------------------------1---------------------------------| 

                                       To supplant the drums, you can just strum. 
                                            v  v  v          v  ? v  v 
           F              C                Am             E 
e|---------------1-----------------0---|----0--0--0----------0--0-0--0-------| 
B|---------------1-----------------1---|----1--1--1----------0--0-0--0-------| 
G|------------2-----------------0------|----2--2--2----------1--1-1--1-------| 
D|---------3-----------------2---------|----2--2--2----------2--2-2--2-------| 
A|------------------------3------------|----0--0--0----------2--2-2--2-------| 
E|------1------------------------------|---------------------0--0-0--0-------| 
                                            d  d  d          d  u d  d 

           F              C                F           C 
e|---------------1-----------------0----------------1---------------0--------| 
B|---------------1-----------------1----------------1---------------1--------| 
G|------------2-----------------0----------------2---------------0-----------| 
D|---------3-----------------2----------------3---------------2--------------| 
A|------------------------3--------------------------------3-----------------| 
E|------1----------------------------------1---------------------------------| 

                                 It’s a..   cold cold, brutal.. world       
                                            v  v  v          v  ? v  v 
           F              C                Am             E 
e|---------------1-----------------0---|----0--0--0----------0--0-0--0-------| 
B|---------------1-----------------1---|----1--1--1----------0--0-0--0-------| 
G|------------2-----------------0------|----2--2--2----------1--1-1--1-------| 
D|---------3-----------------2---------|----2--2--2----------2--2-2--2-------| 
A|------------------------3------------|----0--0--0----------2--2-2--2-------| 
E|------1------------------------------|---------------------0--0-0--0-------| 
                                            d  d  d          d  u d  d 


           Ahhhh-ahhhh-ahhh-ah                Ahhhh-ahhhh-ahhh-ah  

           F              C                F           C 
e|---------------1-----------------0----------------1---------------0--------| 
B|---------------1-----------------1----------------1---------------1--------| 
G|------------2-----------------0----------------2---------------0-----------| 
D|---------3-----------------2----------------3---------------2--------------| 
A|------------------------3--------------------------------3-----------------| 
E|------1----------------------------------1---------------------------------| 

                                         (Ahhhh-ahhhh-ahhh-ahh...) 

       Ahhhh-ahhhh-ahhh-ah        It’s a..   cold cold, brutal.. world  
      
                                            v  v  v          v  ? v  v 
           F              C                Am             E 
e|---------------1-----------------0---|----0--0--0----------0--0-0--0-------| 
B|---------------1-----------------1---|----1--1--1----------0--0-0--0-------| 
G|------------2-----------------0------|----2--2--2----------1--1-1--1-------| 
D|---------3-----------------2---------|----2--2--2----------2--2-2--2-------| 
A|------------------------3------------|----0--0--0----------2--2-2--2-------| 
E|------1------------------------------|---------------------0--0-0--0-------| 
                                            d  d  d          d  u d  d 

Outro Melodic Piano Line/Riff 


e|--------------------------------|     
B|--------------------------------|     
G|--10-9-10-9------8-10-8-(10)----| 
D|------------10--------------10--|     
A|--------------------------------|     
E|--------------------------------|(x3)  

e|--------------------------------|     
B|--------------------------------|     
G|--10-9-10-9------8-10-8---------| 
D|------------10------------------|     
A|--------------------------------|     
E|--------------------------------| 



************************************ 

| (n)  Ghost note 

************************************ 
  

cifra enviadasem correções
enviado porenviada por:hebealmeida
top 5 | awolnation
top rock alternativo
Outras músicas do artista letras do(a) Awolnation
2.
I Am
5.
Sail
Top cifras »Top artistas »
Petaxxon Comunicação Online
Cifras.com.br - Melhor e mais completo site de cifras e tablaturas do Brasil
Mais de 1 milhão de acordes de músicas cadastradas desde 2003
As informações contidas no nosso site são colaborações de seus usuários e podem conter erros, sendo assim, não nos responsabilizamos sobre nenhuma destas.
close
menos
mais
close
Cor dos acordes:

Cor da letra:

 

save
close
close
 
redimensionar