Cifras e Tablaturas
Awolnation

Awolnation

Seven Sticks Of Dynamite

Cifras Cancelar Versão de Impressão
cifras

Awolnation - Seven Sticks Of Dynamite

fixar na tela  
Exibindo: vídeo-aula ver clipes redimensionar

Tom:

  
Intro 
Guitar 1 
e|------x------x------x------x--| 
B|------x------x------x------x--| 
G|------x--4---x------x------x--| 
D|--4---x--4---x--7---x--4---x--| (x2) 
A|--4---x--2---x--7---x--4---x--| 
E|--2---x------x--5---x--2---x--| 

verse 1 
Guitar 1 
e|------x------x------x------x--| 
B|------x------x------x------x--| 
G|------x--4---x------x------x--| 
D|--4---x--4---x--7---x--4---x--| (x4) 
A|--4---x--2---x--7---x--4---x--| 
E|--2---x------x--5---x--2---x--| 

Chorus 1 
Guitar 1 
e|------x------x------x------x----|------x------x------x------x------|| 
B|------x------x------x------x----|------x------x------x------x------|| 
G|------x--4---x------x------x----|------x--4---x------x------x------|| 
D|--4---x--4---x--7---x--4---x----|--4---x--4---x--2---x--4---x------||  
A|--4---x--2---x--7---x--4---x----|--4---x--2---x--2---x--4---x------|| 
E|--2---x------x--5---x--2---x----|--2---x------x--0---x--2---x------|| 
Guitar 2                                                              | 
e|--------------------------------|----------------------------------|| 
B|--------------------------------|----------------------------------|| 
G|--------------------------------|------------------------1-2-------|| 
D|--------------------------------|-----------------------------2--4-||  (x2) 
A|--------------------------------|----------------------------------|| 
E|--------------------------------|----------------------------------|| 
Guitar 3                                                              | 
e|--------------------------------|----------------------------------|| 
B|--------------------------------|----------------------------------|| 
G|--11N---------------------------|--11N-----------------------------|| 
D|--------------------------------|----------------------------------|| 
A|--------------------------------|----------------------------------|| 
E|--------------------------------|----------------------------------|| 

Post Chorus 1 
Guitar 1 
e|------x------x------x------x--| 
B|------x------x------x------x--| 
G|------x--4---x------x------x--| 
D|--4---x--4---x--7---x--4---x--| (x2) 
A|--4---x--2---x--7---x--4---x--| 
E|--2---x------x--5---x--2---x--| 

verse 2 
Guitar 1 
e|------x------x------x------x--| 
B|------x------x------x------x--| 
G|------x--4---x------x------x--| 
D|--4---x--4---x--7---x--4---x--| (x3) 
A|--4---x--2---x--7---x--4---x--| 
E|--2---x------x--5---x--2---x--| 

Guitar 1 
e|------x------x------x------x------|| 
B|------x------x------x------x------|| 
G|------x--4---x------x------x------|| 
D|--4---x--4---x--7---x--4---x------||  
A|--4---x--2---x--7---x--4---x------|| 
E|--2---x------x--5---x--2---x------|| 
Guitar 2                             |  
e|----------------------------------|| 
B|----------------------------------|| 
G|------------------------1-2-------|| 
D|-----------------------------2--4-|| 
A|----------------------------------|| 
E|----------------------------------|| 

Chorus 2 
Guitar 1 
e|------x------x------x------x----|------x------x------x------x------|| 
B|------x------x------x------x----|------x------x------x------x------|| 
G|------x--4---x------x------x----|------x--4---x------x------x------|| 
D|--4---x--4---x--7---x--4---x----|--4---x--4---x--2---x--4---x------||  
A|--4---x--2---x--7---x--4---x----|--4---x--2---x--2---x--4---x------|| 
E|--2---x------x--5---x--2---x----|--2---x------x--0---x--2---x------|| 
Guitar 2                                                              | 
e|--------------------------------|----------------------------------|| 
B|--------------------------------|----------------------------------|| 
G|--------------------------------|------------------------1-2-------|| 
D|--------------------------------|-----------------------------2--4-|| 
A|--------------------------------|----------------------------------|| 
E|--------------------------------|----------------------------------|| 
Guitar 3                                                              | 
e|--------------------------------|----------------------------------|| 
B|--------------------------------|----------------------------------|| 
G|--11N---------------------------|--11N-----------------------------|| 
D|--------------------------------|----------------------------------|| 
A|--------------------------------|----------------------------------|| 
E|--------------------------------|----------------------------------|| 

Guitar 1 
e|------x------x------x------x----|------x------x------x-----|| 
B|------x------x------x------x----|------x------x------x-----|| 
G|------x--4---x------x------x----|------x--4---x------x-----|| 
D|--4---x--4---x--7---x--4---x----|--4---x--4---x--2---x--4--|| 
A|--4---x--2---x--7---x--4---x----|--4---x--2---x--2---x--4--|| 
E|--2---x------x--5---x--2---x----|--2---x------x--0---x--2--|| 
Guitar 3                                                      | 
e|--------------------------------|--------------------------|| 
B|--------------------------------|--------------------------|| 
G|--11N---------------------------|--11N---------------------|| 
D|--------------------------------|--------------------------|| 
A|--------------------------------|--------------------------|| 
E|--------------------------------|--------------------------|| 

Post Chorus 2 
Guitar 1 
e|------x------x------x------x----|------x------x------x------x------|| 
B|------x------x------x------x----|------x------x------x------x------|| 
G|------x--4---x------x------x----|------x--4---x------x------x------|| 
D|--4---x--4---x--7---x--4---x----|--4---x--4---x--2---x--4---x------||  
A|--4---x--2---x--7---x--4---x----|--4---x--2---x--2---x--4---x------|| 
E|--2---x------x--5---x--2---x----|--2---x------x--0---x--2---x------|| 
Guitar 2                                                              | 
e|--------------------------------|----------------------------------|| 
B|--------------------------------|----------------------------------|| 
G|--------------------------------|------------------------1-2-------|| 
D|--------------------------------|-----------------------------2--4-|| 
A|--------------------------------|----------------------------------|| 
E|--------------------------------|----------------------------------|| 
Guitar 3                                                              | 
e|--------------------------------|----------------------------------|| 
B|--------------------------------|----------------------------------|| 
G|--11N---------------------------|--11N-----------------------------|| 
D|--------------------------------|----------------------------------|| 
A|--------------------------------|----------------------------------|| 
E|--------------------------------|----------------------------------|| 

Solo 
Guitar 1 
e|-----x------x------x------x-|-----x------x------x------x-|| 
B|-----x------x------x------x-|-----x------x------x------x-|| 
G|-----x--4---x------x------x-|-----x--4---x------x------x-|| 
D|-4---x--4---x--7---x--4---x-|-4---x--4---x--2---x--4---x-|| 
A|-4---x--2---x--7---x--4---x-|-4---x--2---x--2---x--4---x-|| 
E|-2---x------x--5---x--2---x-|-2---x------x--0---x--2---x-|| 
Guitar 2                                                    |  
e|----------------------------|----------------------------|| 
B|----------------------------|----------------------------|| 
G|----------------9-----------|----------------------------|| 
D|------7-9--9b10----9~--9~---|-----7-9--9b10-9--7h9--7~---|| 
A|---/9-----------------------|--/9------------------------|| 
E|----------------------------|----------------------------|| 
Guitar 3                                                    | 
e|--------------------------------|------------------------|| 
B|--------------------------------|------------------------|| 
G|--11N---------------------------|--11N-------------------|| 
D|--------------------------------|------------------------|| 
A|--------------------------------|------------------------|| 
E|--------------------------------|------------------------|| 

Outro 
Guitar 2 
e|------------------------|------------------------|------------------------|--------------------------|| 
B|------------------------|------------------------|------------------------|--------------------------|| 
G|----------4--4--4--4--4-|------------------------|----------4--4--4--4--4-|------------------------2-|| 
D|-4--4--4--4--4--4--4--4-|-7--7--7--4--4--4--4--4-|-4--4--4--4--4--4--4--4-|-2--2--2--4--4--4----2--2-|| 
A|-4--4--4--2--2--2--2--2-|-7--7--7--4--4--4--4--4-|-4--4--4--2--2--2--2--2-|-2--2--2--4--4--4----2--0-|| 
E|-2--2--2----------------|-5--5--5--2--2--2--2--2-|-2--2--2----------------|-0--0--0--2--2--2----0----|| 
Guitar 3                                                                                                | 
e|------------------------|------------------------|------------------------|--------------------------|| 
B|------------------------|------------------------|------------------------|--------------------------|| 
G|-11N--------------------|-11N--------------------|-11N--------------------|-11N----------------------|| 
D|------------------------|------------------------|------------------------|--------------------------|| 
A|------------------------|------------------------|------------------------|--------------------------|| 
E|------------------------|------------------------|------------------------|--------------------------|| 

Guitar 2 
e|------------------------|------------------------|------------------------|--------------------------|| 
B|------------------------|------------------------|------------------------|--------------------------|| 
G|----------4--4--4--4--4-|------------------------|----------4--4--4--4--4-|---------------------2----|| 
D|-4--4--4--4--4--4--4--4-|-7--7--7--4--4--4--4--4-|-4--4--4--4--4--4--4--4-|-2--2--2--4--4--4----2--2-|| 
A|-4--4--4--2--2--2--2--2-|-7--7--7--4--4--4--4--4-|-4--4--4--2--2--2--2--2-|-2--2--2--4--4--4----0--2-|| 
E|-2--2--2----------------|-5--5--5--2--2--2--2--2-|-2--2--2----------------|-0--0--0--2--2--2-------0-|| 
Guitar 3                                                                                                | 
e|------------------------|------------------------|------------------------|--------------------------|| 
B|------------------------|------------------------|------------------------|--------------------------|| 
G|-11N--------------------|-11N--------------------|-11N--------------------|-11N----------------------|| 
D|------------------------|------------------------|------------------------|--------------------------|| 
A|------------------------|------------------------|------------------------|--------------------------|| 
E|------------------------|------------------------|------------------------|--------------------------|| 

Guitar 2 
e|------------------------|------------------------|------------------------|--------------------------|| 
B|------------------------|------------------------|------------------------|--------------------------|| 
G|----------4--4--4--4--4-|------------------------|----------4--4--4--4--4-|-------------------2-2----|| 
D|-4--4--4--4--4--4--4--4-|-7--7--7--4--4--4--4--4-|-4--4--4--4--4--4--4--4-|-2--2--2--4--4--4--2-2--2-|| 
A|-4--4--4--2--2--2--2--2-|-7--7--7--4--4--4--4--4-|-4--4--4--2--2--2--2--2-|-2--2--2--4--4--4--0-0--2-|| 
E|-2--2--2----------------|-5--5--5--2--2--2--2--2-|-2--2--2----------------|-0--0--0--2--2--2-------0-|| 
Guitar 3                                                                                                | 
e|------------------------|------------------------|------------------------|--------------------------|| 
B|------------------------|------------------------|------------------------|--------------------------|| 
G|-11N--------------------|-11N--------------------|-11N--------------------|-11N----------------------|| 
D|------------------------|------------------------|------------------------|--------------------------|| 
A|------------------------|------------------------|------------------------|--------------------------|| 
E|------------------------|------------------------|------------------------|--------------------------|| 

Guitar 2 
e|------------------------|------------------------|------------------------|--------------------------|| 
B|------------------------|------------------------|------------------------|--------------------------|| 
G|----------4--4--4--4--4-|------------------------|----------4--4--4--4--4-|---------------------2----|| 
D|-4--4--4--4--4--4--4--4-|-7--7--7--4--4--4--4--4-|-4--4--4--4--4--4--4--4-|-2--2--2--4--4--4----2--2-|| 
A|-4--4--4--2--2--2--2--2-|-7--7--7--4--4--4--4--4-|-4--4--4--2--2--2--2--2-|-2--2--2--4--4--4----0--2-|| 
E|-2--2--2----------------|-5--5--5--2--2--2--2--2-|-2--2--2----------------|-0--0--0--2--2--2-------0-|| 
Guitar 3                                                                                                | 
e|------------------------|------------------------|------------------------|--------------------------|| 
B|------------------------|------------------------|------------------------|--------------------------|| 
G|-11N--------------------|-11N--------------------|-11N--------------------|-11N----------------------|| 
D|------------------------|------------------------|------------------------|--------------------------|| 
A|------------------------|------------------------|------------------------|--------------------------|| 
E|------------------------|------------------------|------------------------|--------------------------|| 

Guitar 1 
e|-----------------------|---------|-----------------------|| 
B|-----------------------|---------|-----------------------|| 
G|-----------------------|------2--|-----------------------|| 
D|-----------------------|--2---2--|-----------------------|| 
A|-----------------------|--2---0--|-----------------------|| 
E|-----------------------|--0------|-----------------------|| 
Guitar 2                                                    | 
e|-----------------------|---------|-----------------------|| 
B|-----------------------|---------|-----------------------|| 
G|--------4--------------|---------|--------4--------------|| 
D|--4-----4-----7-----4--|---------|--4-----4-----2-----4--|| 
A|--4-----2-----7-----4--|---------|--4-----2-----2-----4--|| 
E|--2-----------5-----2--|---------|--2-----------0-----2--|| 
Guitar 3                                                    | 
e|------------------------------|--------------------------|| 
B|------------------------------|--------------------------|| 
G|--11N-------------------------|--11N---------------------|| 
D|------------------------------|--------------------------|| 
A|------------------------------|--------------------------|| 
E|------------------------------|--------------------------|| 
(I couldn't figure out some of Guitar 2's parts,(FOR NOW). Will be working on them soon, otherwise- enjoy) 


************************************ 

| x   Dead note 
| h   Hammer-on 
| b   Bend 
| /   Slide up 
| ~   Vibrato 
| N   Tremolo 

************************************ 
  

top 5 | awolnation
top rock alternativo
Outras músicas do artista letras do(a) Awolnation
1.
Sail
Top cifras »Top artistas »
Petaxxon Comunicação Online
Cifras.com.br - Melhor e mais completo site de cifras e tablaturas do Brasil
Mais de 1 milhão de acordes de músicas cadastradas desde 2003
As informações contidas no nosso site são colaborações de seus usuários e podem conter erros, sendo assim, não nos responsabilizamos sobre nenhuma destas.
close
menos
mais
close
Cor dos acordes:

Cor da letra:

 

save
close
close
 
redimensionar