Cifras e Tablaturas
Ayreon

Ayreon

My House On Mars

Cifras Cancelar Versão de Impressão
cifras

Ayreon - My House On Mars

fixar na tela  
Exibindo: vídeo-aula ver clipes redimensionar
    
Main Theme 
  
Play at (1:40) 
e|-----------------------------------|---------------------------------------| 
B|--------9-10-12-9-------12----10p9-|------9h10p9---------------------------| 
G|-11-----------------9--------------|-11----------9-------------------------| play 2x 
D|-----------------------------------|---------------11TB(9)r11--------------| 
A|-----------------------------------|---------------------------------------| 
D|-----------------------------------|---------------------------------------| 
  
  
Play at (2:56) 
e|-----------------------------------|---------------------------------------| 
B|--------9-10-12-9-------12----10p9-|------9h10p9---------------------------| 
G|-11-----------------9--------------|-11----------9-------------------------| 
D|-----------------------------------|---------------11TB(9)r11--------------| 
A|-----------------------------------|---------------------------------------| 
D|-----------------------------------|---------------------------------------| 
  
e|-----------------------------------|-----------------------------| 
B|--------9-10-12-9-------12----10p9-|-----------------------------| 
G|-11-----------------9--------------|-11--------------------------| 
D|-----------------------------------|-----------------------------| last bar is 
A|-----------------------------------|-----------------------------| 2 beats 
D|-----------------------------------|-----9h10h11---11------------| 
  
  
  
Second Theme 
  
e|------------------------|------------------------| 
B|------------------------|------------------------| 
G|------------------------|------------------------|  play 2x starting at 3:12 
D|------------------------|------------------------|  repeat after each line of lyrics 
A|------------------------|------------------------| 
D|-4----2---1-0-----2---3-|-4----2---1-0-----2-----| 
  
(4:22) 
e|------------------------|------------------------| 
B|------------------------|------------------------| 
G|------------------------|------------------------| 
D|------------------------|------------------------| 
A|------------------------|-2----------------------| 
D|-2----------------------|-2----------------------| 
  
  
  
Solo 
  
e|-12b14-----------------------|---------------------------|------------------------------| 
B|-----------------14b15r14p12-|-14___b15r----------\12----|----12------------------------| 
G|-----------------------------|------------------------14-|-13---------------14-13TB(11)r| 
D|-----------------------------|---------------------------|------------------------------| 
A|-----------------------------|---------------------------|------------------------------| 
D|-----------------------------|---------------------------|------------------------------| 
  
e|-----------------------------|---------------------------|-------------------------------| 
B|-----------------------------|---------------------------|-------------------------------| 
G|-14-13----------------13b14r-|-11------------------------|------------------11-13-14-b16-| 
D|-----------------------------|----11TB(9)r-----------9\7-|-9/11___b12r-------------------| 
A|-----------------------------|---------------------------|-------------------------------| 
D|-----------------------------|---------------------------|-------------------------------| 
  
e|--------------------------21-17h19-|-\16--------------------17p16-|--------------| 
B|---------------------18-19---------|------------------------------|-19-----------| 
G|-13---------------/18--------------|------------------------------|--------------| 
D|-----------------------------------|------------------------------|--------------| 
A|-----------------------------------|------------------------------|--------------| 
D|-----------------------------------|------------------------------|--------------| 
  
  
  
Final Theme 1 
  
Play at (6:08) 
e|-----------------------------------|---------------------------------------| 
B|--------9-10-12-9-------12----10p9-|------9h10p9---------------------------| 
G|-11-----------------9--------------|-11----------9-------------------------| play 4x 
D|-----------------------------------|---------------11TB(9)r11--------------| 
A|-----------------------------------|---------------------------------------| 
D|-----------------------------------|---------------------------------------| 
  
  
   Guitar 2 
e|-----------------------------------| 
B|-----------------------------------| 
G|-----------------------------------| Repeated during first couple times through melody 
D|-----------------------------------| Note that rhythm is offbeat from 4/4 
A|-----------------------------------| 
D|-2-3-4--4--2-3-4--4--2-3-4--4------| 
  
  
   Guitar 2, during melody repeats 3 & 4 
e|----------------------------|----------------------------------| 
B|----------------------------|----------------------------------| 
G|----------------------------|----------------------------------| 
D|----------------------------|----------------------------------| 
A|----------0-2-----------0-1-|-2---2h3h4---4-------------2-3-4--| 
D|-4------6-----2-------4-----|-----------------4----------------| 
  
e|----------------------------|----------------------------------| 
B|----------------------------|----------------------------------| 
G|----------------------------|----------------------------------| 
D|----------------------------|----------------------------------| 
A|----------0-2-----------0-1-|-2---2h3h4---4--------------------| 
D|-4------6-----2-------4-----|-----------------4----------------| 
  
  
  
Outro Solo 
  
e|--9~------------------|-9~---------------------|--------------------------------------| 
B|-10~------------------|-10~---/17p14-----14----|-16----------quietly------------------| 
G|----------------------|------------------14----|-16--14-----16-16-16-16-16------------| 
D|----------------------|------------------------|-------16-----------------------------| 
A|----------------------|------------------------|--------------------------------14h16-| 
D|----------------------|------------------------|--------------------------------------| 
  
e|-----------------------------------------|------------------------------|----------------| 
B|-----------------------------------------|------------------------------|----------------| 
G|-14-14---------14-14---------------------|------------------------------|----------------| 
D|-------16-----------14-------------------|------------------------------|----------------| 
A|------------------------14\12-14~--12h14-|-12~------------------9TB(7)r-|-9--------------| 
D|-----------------------------------------|------------------------------|----------------| 
  
e|-12-------/14--------------------|-------------------------------------|--------------------------------| 
B|--------------14~----------14h15-|-14~---------------14-----16b17r-----|--------------------------------| 
G|---------------------------------|-------------------14-----16b17r--14-|--------------------------------| 
D|---------------------------------|----------------16----16-------------|-14h16-----14-------------------| 
A|---------------------------------|-------------------------------------|--------------16-14----12h14p12-| 
D|---------------------------------|-------------------------------------|--------------------------------| 
  
e|----------------------------|----------------------------------| 
B|----------------------------|----------------------------------| 
G|----------------------------|----------------------------------| 
D|----------------------------|--------------7/9-11--------------|  fade out 
A|-12~----------12\7----7/9---|---------------------9------------| 
D|----------------------------|----------------------------------| 
  
  
   
************************************ 
  
| h   Hammer-on 
| p   Pull-off 
| r   Release Bend 
| b   Bend 
| TB  tremelo bar bend - to lower note to pitch indicated 
| /   Slide up 
| \   Slide down 
| ~   Vibrato 
| __  Hold note before bending or changing to next note 
  
************************************ 
  

top 5 | ayreon
top heavy metal
Outras músicas do artista letras do(a) Ayreon
Top cifras »Top artistas »
Petaxxon Comunicação Online
Cifras.com.br - Melhor e mais completo site de cifras e tablaturas do Brasil
Mais de 1 milhão de acordes de músicas cadastradas desde 2003
As informações contidas no nosso site são colaborações de seus usuários e podem conter erros, sendo assim, não nos responsabilizamos sobre nenhuma destas.
close
menos
mais
close
Cor dos acordes:

Cor da letra:

 

save
close
close
 
redimensionar