Cifras e Tablaturas
Baden Powell

Baden Powell

O Astronauta

Ano: 2007
Album : Millennium

Cifras Cancelar Versão de Impressão
cifras

Baden Powell - O Astronauta

fixar na tela  
Exibindo: vídeo-aula ver clipes redimensionar
  ---------------------------0--2--5-----2------------------------ 
-2--2-3-2--0--2-3-2--0-2-3----2-------2------------------------- 
-2---------1---------0--------2------2-------------------------- 
-0---------0---------2------------------------------------------ 
------------------------------0-----0--------------------------- 
-2---------1---------0------------------------------------------ 
---------------------------------------------------------------- 


-5--7-8-5------------------------------------------------------- 
-5---------8---------8--10-7-8--5------------------------------- 
-5---------5--------7-----------4------------------------------- 
-----------7--9~---9------------5------------------------------- 
-0---------6------7-------------4------------------------------- 
---------------------------------------------------------------- 
---------------------------------------------------------------- 


---2-----2-----0-----0---------------------------7-5------------ 
---5--5-----3-----3-----3--6-5-6--3--5-3-5----5----------------- 
---3--3-----2-----------1---------3----------5------------------ 
------------------------2---------3----------------------------- 
------------------------1-------------------0------------------- 
-2----------2---------------------3----------------------------- 
---------------------------------------------------------------- 



-----------------------0--2--2------2--2--0--------------------- 
-3--2--0-2-3-2--0--2-3----3--3-----2---2--3--------------------- 
-0--0--2--------1---------1--1----0----0--2--------------------- 
-2--2--0--------0---------2--2---2-----2--0--------------------- 
-0--0---------------------------0------0------------------------ 
-------2--------1----------------------------------------------- 
---------------------------------------------------------------- 

  

-5--10-----2-----1--2------3------------------------------------ 
-6--8---5--3--3--0--3-----2------------------------------------- 
-6--9---4--3--2--1--1----2-------------------------------------- 
----7---2--2--2--0--2---2--------------------------------------- 
-6------------1--------0---------------------------------------- 
--------4------------------------------------------------------- 
---------------------------------------------------------------- 




-5-5-5-5---10-10-10-10-----------2-2-2-2-----------1-1-1-1------ 
-6---------8------------5-5-5-5--3--------3-3-3-3--0------------ 
-6---------9------------4--------3--------0--------1------------ 
-----------7------------2--------2--------2--------0------------ 
-6----------------------------------------1--------------------- 
------------------------4---------------------------------------   
---------------------------------------------------------------- 



-2-2-2-2--3-3-3-3----------------------------------------------- 
-3--------2----------------------------------------------------- 
-1--------2----------------------------------------------------- 
-2--------2----------------------------------------------------- 
---------------------------------------------------------------- 
---------------------------------------------------------------- 
---------------------------------------------------------------- 



---4/5-5-5-5---5--4--3--|------|-------------------------------- 
---4/5-5-5-5---5--4--3--|------|--3/4--5------------------------ 
---3/4-4-4-4---4--3--2--|------|--2/5--4------------------------ 
---3/4-4-4-4---4--3--2--|-(3x)-|--2/5--4------------------------ 
-x-4/5-5-5-5-x-5--4--3--|------|--3/4--5------------------------ 
------------------------|------|-------------------------------- 
---------------------------------------------------------------- 
  

top 5 | baden powell
top bossa nova
Outras músicas do artista letras do(a) Baden Powell
Top cifras »Top artistas »
Petaxxon Comunicação Online
Cifras.com.br - Melhor e mais completo site de cifras e tablaturas do Brasil
Mais de 1 milhão de acordes de músicas cadastradas desde 2003
As informações contidas no nosso site são colaborações de seus usuários e podem conter erros, sendo assim, não nos responsabilizamos sobre nenhuma destas.
close
menos
mais
close
Cor dos acordes:

Cor da letra:

 

save
close
close
 
redimensionar