Cifras e Tablaturas
Baden Powell

Baden Powell

Samba Em PrelúdioTablatura Verificada

Ano: 2005
Album : Le Monde Musical de Baden Powell
Compositor : (Baden Powell / Vinícius de Moraes)

Cifras Cancelar Versão de Impressão

Baden Powell - Samba Em Prelúdio

Tom: Em

  			Part 1:  

e|---------------7--8----7-------------------8--7------------------||---8----7\-------------------7-|   
B|-------------8----8----------------7--10---7---------------6--9--||---6--------1-----1---5--8---8-|  
G|---9------9-------9-------8-----8----------8------7-----7--------||---6--------1-----1---5--8---8-|   
D|-------9---------------------7-------------7---------6-----------||---6---------------------------|   
A|--------------------------9-----------------------8--------------||------------0----------------0-|   
E|-----0------------0----------------------------------------------||-------------------------------|   

e|---------------7-----------5\---0-3-5----||------------------3---2~------------3--||---3--5--6--6--6--6--5--3--5-----3\-0-------|  
B|----1---5--8----------7-------0--------0-||-----------2--5---2-----------1--4--1--||---------5--------------------4-----------0-|    
G|----------------------8----------------0-||--3---------------3-------2---------2--||---------3--------------------4-----------0-|   
D|----0-----------------7------------------||------4-----------2-------1---------1--||---------4--------------------4-----------4-|    
A|-------------------9---------------------||------------------------------------0--||---------------------------0-----------2----|    
E|---------------7--------------0-----0----||----2-------------0-------2------------||------------------------------------0-------|    

Chorus: 

e|---15----------------14--------------12--12-------------------------||--11----------------------7--8--10----------12---10---11--|   
B|-----------0-----0----------0-----0--------------10------10------10-||----------10------10--------------------9-----------------|   
G|--------0-----0----------0-----0---------------------11------11-----||------11------11--------------------10--------------------|   
D|---------------------------------------------10---------------------||--10-----------------------------9--------------------12--|   
A|-----------------------------------------0--------------------------||----------------------------------------------------------|   
E|---0----------------------------------------------------------------||----------------------------------------------------------|   

e|----------------------12--10--10---8----8--||--8----------------7-------------||--5--5---------------3------------------3--5--6-------------5--3--6-|  
B|-------12------12--------------------------||---------5-----5--------7---7----||-----------0-----0-----------0-----0----------------5----5----------|    
G|---13------13------------------------------||------5-----5-------------8-8----||--------0-----0-----------0-----0----------------6----6-------------|   
D|-------------------------------------------||---------------------------------||----------------------------------------------5---------------------|    
A|------------------------------0---------0--||--0-------------------9----------||--------------------------------------------------------------------|    
E|-------------------------------------------||-------------------7-------------||-----0----------------0---------------------------------------------|   

e|----------------2--3--5---------------3--2---5---------------||-3--5--6-------------5--3--5------------2/3--0---------------0---0-|   
B|------5-----5---------------4-----4-----------------4-----4--||-------------5----5--------------4----4------------------0-----0-0-|   
G|---6-----6---------------5-----5-----------------5-----5-----||----------3----3---------------4---4-------------------0---0-----0-|   
D|----------------------4----------------------4---------------||-------4---------------------4-----------------------4-----------4-|   
A|-------------------------------------------------------------||---------------------------0----------------------2--------------2-|  
E|-------------------------------------------------------------||-----------------------------------------------0-----------------0-|   


    	
fixar
fixar inscrever-se

enviado porenviado por: Acelot
cifra enviadaCorrigida por: jhuninho2016
logo top cifrasComente
ico música do artistaMúsicas deste artista
ico curtiuCurtiu?
ico destaqueDestaque
Petaxxon Comunicação Online

Cifras.com.br - Melhor e mais completo site de cifras e tablaturas do Brasil Mais de 1 milhão de acordes de músicas cadastradas desde 2003
As informações contidas no nosso site são colaborações de seus usuários e podem conter erros, sendo assim, não nos responsabilizamos sobre nenhuma destas.

close
menos
mais
close
Cor dos acordes:

Cor da letra:

close
Alinhar acordes a direita Alinhar acordes a esquerda Alinhar acordes em baixo Alinhar acordes no topo
close
  Mostrar todos os acordes Esconder acordes muito fáceis Esconder acordes fáceis Esconder acordes intermediários
redimensionar
glossário