Cifras e Tablaturas
Banda Malta

Banda Malta

Supernova

Cifras Cancelar Versão de Impressão
cifras

Banda Malta - Supernova

fixar na tela  
Exibindo: vídeo-aula ver clipes redimensionar
  Intro: 

eb|-----------------|----------------------------------------| 
Bb|-----------------|----------------------------------------| 
Gb|-----------------|-9-9/11-11/12-12/16-16\9--9/11-11/12-12-| 
Db|-----------------|----------------------------------------| 
Ab|-2--2-5-2--0-1-2-|-7-7/9---9/10-10/14-14\7--7/9---9/10-10-| 
Db|-2--2-5-2--0-1-2-|----------------------------------------| 

eb|------------------------------------| 
Bb|------------------------------------| 
Gb|-9-9/11-11/12-12/16-16\9-9/11-11/12-| 
Db|------------------------------------| 
Ab|-7-7/9---9/10-10/14-14\7-7/9---9/10-| 
Db|------------------------------------| 

eb|----------------|------------------------------------| 
Bb|----------------|------------------------------------| 
Gb|-14\12--11--7-7-|-9/11-11-9--------------------------| 
Db|----------------|------------------------------------| 
Ab|-12\10--9---5-5-|-7/9--9--7--2-2-2------5-5--7-7-8-8-| 
Db|----------------|------------2-2-2------5-5--7-7-8-8-| 

Part A:  

eb|----------| 
Bb|----------| 
Gb|----------| 
Db|----------| 
Ab|-2-2-2--0-| 
Db|-2-2-2--0-| 

eb|----------------------------------| 
Bb|----------------------------------| 
Gb|----------------------------------| 
Db|----------------------------------| 
Ab|-0-0-0-0-0-0-0-0--2-2-2-2-2-2-2-2-| 
Db|-0-0-0-0-0-0-0-0--2-2-2-2-2-2-2-2-| 

eb|--------------------| 
Bb|--------------------| 
Gb|--------------------| 
Db|--------------------| 
Ab|--------------------| 
Db|-5-7-7--5--7-7--5-7-| 

Part B: 

eb|----------------------| 
Bb|----------------------| 
Gb|----------------------| 
Db|----------------------| 
Ab|-2-5--0---9-7-5-2-5-7-| 
Db|-2-5--0---9-7-5-2-5-7-| 

Refrão: 

eb|----------------------------------| 
Bb|----------------------------------| 
Gb|----------------------------------| 
Db|----------------------------------| 
Ab|-x-2-x-2-x-2-x-2-x-2-x-2--9-7-5h7-| 
Db|-x-2-x-2-x-2-x-2-x-2-x-2--9-7-5h7-| 

eb|----------------------------------| 
Bb|----------------------------------| 
Gb|----------------------------------| 
Db|----------------------------------| 
Ab|-x-2-x-2-x-2-x-2-x-2-x-2----------| 
Db|-x-2-x-2-x-2-x-2-x-2-x-2--9-7-5~~-| 

eb|-----------------------------------------------------------------| 
Bb|-----------------------------------------------------------------| 
Gb|-----------------------------------------------------------------| 
Db|-----------------------------------------------------------------| 
Ab|-x-2-x-2-x-2-x-2-x-2-x-2-x-2-x-2-x-0-x-0-x-0-x-0---9-7-5-2-5-7-5-| 
Db|-x-2-x-2-x-2-x-2-x-2-x-2-x-2-x-2-x-0-x-0-x-0-x-0---9-7-5-2-5-7-5-| 

eb|----------------------------------| 
Bb|----------------------------------| 
Gb|----------------------------------| 
Db|----------------------------------| 
Ab|-x-2-x-2-x-2-x-2-x-2-x-2--9-7-5h7-| 
Db|-x-2-x-2-x-2-x-2-x-2-x-2--9-7-5h7-| 

eb|----------------------------------| 
Bb|----------------------------------| 
Gb|----------------------------------| 
Db|----------------------------------| 
Ab|-x-2-x-2-x-2-x-2-x-2-x-2----------| 
Db|-x-2-x-2-x-2-x-2-x-2-x-2--9-7-5~~-| 

eb|-------------------------------------------------------------------| 
Bb|-------------------------------------------------------------------| 
Gb|-------------------------------------------------------------------| 
Db|-------------------------------------------------------------------| 
Ab|-x-2-x-2-x-2-x-2-x-2-x-2-x-2-x-2-x-0-x-0-x-0-x-0---9-9-9-8-8-8-7-7-| 
Db|-x-2-x-2-x-2-x-2-x-2-x-2-x-2-x-2-x-0-x-0-x-0-x-0---9-9-9-8-8-8-7-7-| 


Intro: 

eb|----------------------------------------| 
Bb|----------------------------------------| 
Gb|-9-9/11-11/12-12/16-16\9-9/11-11/12--12-| 
Db|----------------------------------------| 
Ab|-7-7/9---9/10-10/14-14\7-7/9---9/10--10-| 
Db|----------------------------------------| 

eb|----------------------------------------| 
Bb|----------------------------------------| 
Gb|-9-9/11-11/12-12/16-16\9-9/11-11/12/14--| 
Db|----------------------------------------| 
Ab|-7-7/9---9/10-10/14-14\7-7/9---9/10/12--| 
Db|----------------------------------------| 

eb|------------------------------| 
Bb|------------------------------| 
Gb|-14/12--11--9--14-12--11--7-7-| 
Db|------------------------------| 
Ab|-12/10--9---7--12-10--9---5-5-| 
Db|------------------------------| 

eb|-------------------------------------------------| 
Bb|-------------------------------------------------| 
Gb|-14/12--11--7-7--9-9/11-11/9-------------7--7--7-| 
Db|-------------------------------------------------| 
Ab|-12/10--9---5-5--7-7/9--9-/7-----2-2-2---5--5--5-| 
Db|---------------------------------2-2-2-----------| 
  

top 5 | banda malta
top rock'n roll
Outras músicas do artista letras do(a) Banda Malta
Top cifras »Top artistas »
Petaxxon Comunicação Online
Cifras.com.br - Melhor e mais completo site de cifras e tablaturas do Brasil
Mais de 1 milhão de acordes de músicas cadastradas desde 2003
As informações contidas no nosso site são colaborações de seus usuários e podem conter erros, sendo assim, não nos responsabilizamos sobre nenhuma destas.
close
menos
mais
close
Cor dos acordes:

Cor da letra:

 

save
close
close
 
redimensionar