Cifras e Tablaturas
Baroness

Baroness

Morningstar

Cifras Cancelar Versão de Impressão
cifras

Baroness - Morningstar

fixar na tela  
Exibindo: vídeo-aula ver clipes redimensionar
  
Intro Ambience 

0:00 (Tempo: 118)  Assumedly Peter; Right Channel 
D|-----------------------------------------------------------------| 
A|-----------------------------------------------------------------| 
F|-11--9--------9------9~---11------11^~--12------12~--------------| 
C|--------12-------9-^----------12------------12-------------------| 
G|------------------------------------------------------7--------9-| 
D|--------------------------------------------------------10-7-5---| 

0:00  Assumedly Baizley; Left Channel 
D|--------------------------------------------------------------------| 
A|---------------13-12-13----15------15----12-------------------------| 
F|-14--12--14--------------------11------------14--12----9---------10-| 
C|---------------------------------------------------------12-9-------| 
G|--------------------------------------------------------------12----| 
D|--------------------------------------------------------------------| 


Intro 

0:13 (Tempo: 117/118~)  Baizley x2 
D|----------------------------------------------------| 
A|--------------------------------------------------0-| 
F|---------------------------------------------9/10---| 
C|-------10\9---7---9-----10\9---------0-7p0----------| 
G|-------8-\7---5---7-----8-\7-----7h8-------8--------| 
D|-0-0-0------0--0----0-0------0-0--------------------| 
 | x x x      x  x    x x      x x 
D|------------------------------------------------0-| 
A|--------------------------------------------3/4---| 
F|--------------------------------------------------| 
C|-------5\4---2---4-----5\4---------0-2p0----------| 
G|-------3\2---0---2-----3\2-----2h3-------3--------| 
D|-0-0-0-----0---0---0-0-----0-0--------------------| 
 | x x x     x   x   x x     x x 
D|----------------------------------------------------------| 
A|---------------------------------------0---------------12-| 
F|-------------------------------------------------11h13----| 
C|-------10\9---7---9-----10/13------------9----------------| 
G|-------8-\7---5---7-----8-/11-----9h11----h11-11----------| 
D|-0-0-0------0--0----0-0-------0-0-------------------------| 
 | x x x      x  x    x x       x x 
D|---------------------------------------------------| 
A|---------------------------------------------------| 
F|---------------------------------------------------| 
C|-------10\9---7---9-----10---------------------0h3-| 
G|-------8-\7---5---7-----8--------0h1p0---0h1h3-----| 
D|-0-0-0------0--0----0-0----0h1h3-------3-----------| 
   x x x      x  x    x x 


0:13  Peter 
D|----------------------------------------------------| 
A|--------------------------------------------------0-| 
F|---------------------------------------------9/10---| 
C|-------10\9---7---9-----10\9---------0-7p0----------| 
G|-------8-\7---5---7-----8-\7-----7h8-------8--------| 
D|-0-0-0------0--0----0-0------0-0--------------------| 
 | x x x      x  x    x x      x x 
D|------------------------------------------------0-| 
A|--------------------------------------------3/4---| 
F|--------------------------------------------------| 
C|-------5\4---2---4-----5\4---------0-2p0----------| 
G|-------3\2---0---2-----3\2-----2h3-------3--------| 
D|-0-0-0-----0---0---0-0-----0-0--------------------| 
 | x x x     x   x   x x     x x 
D|----------------------------------------------------------| 
A|---------------------------------------0---------------12-| 
F|-------------------------------------------------11h13----| 
C|-------10\9---7---9-----10/13------------9----------------| 
G|-------8-\7---5---7-----8-/11-----9h11----h11-11----------| 
D|-0-0-0------0--0----0-0-------0-0-------------------------| 
 | x x x      x  x    x x       x x 
D|---------------------------------------------------| 
A|---------------------------------------------------| 
F|---------------------------------------------------| 
C|-------10\9---7---9-----10---------------------0h3-| 
G|-------8-\7---5---7-----8--------0h1p0---0h1h3-----| 
D|-0-0-0------0--0----0-0----0h1h3-------3-----------| 
   x x x      x  x    x x 

0:30 
D|-------------------------------------------------------------| 
A|-----------------------------------------------------------0-| 
F|-------17\16---14---16-----17\16---------------------16h17---| 
C|-------------------------------------------0-14p0------------| 
G|-------15\14---12---14-----15\14-----14h15--------15---------| 
D|-0-0-0-------0----0----0-0-------0-0-------------------------| 
 | x x x       x    x    x x       x x 
D|----------------------------------------------------------| 
A|--------------------------------------------------------0-| 
F|-------12\11---9---11-----12\11-------------------11h12---| 
C|-----------------------------------------0-9p0------------| 
G|-------10-\9---7---9------10-\9-----9h10-------10---------| 
D|-0-0-0-------0---0----0-0-------0-0-----------------------| 
 | x x x       x   x    x x       x x 
D|---------------------------------------------------------| 
A|-------------------------------------------------------0-| 
F|---------------------------------------------------------| 
C|-------10\9---7---9-----10/13---------------------11h13--| 
G|-------8-\7---5---7-----8-/11-------------9h11-11--------| 
D|-0-0-0-8-\7-0-5-0-7-0-0-8-/11-0-0-9h11-11----------------| 
 | x x x      x   x   x x       x x 
D|--------------------------------------------------| 
A|--------------------------------------------------| 
F|--------------------------------------------------| 
C|-------10\9--7---9-----10---------------------0h3-| 
G|-------8-\7--5---7-----8--------0h1p0---0h1h3-----| 
D|-0-0-0------0--0---0-0----0h1h3-------3-----------| 
   x x x      x  x   x x 



Lead-In to Verse 
0:46 (Tempo: )  Peter 
D|-------------------------------------------------| 
A|-------------------------------------------------| 
F|-------------4p0---------------------4p0---------| 
C|-----0-5p0-------7p0-5p0-----0-5p0-------7p0-5p0-| 
G|-5h7-------7-------------5h7-------7-------------| 
D|-------------------------------------------------| 
 | 
D|-------------------------------------------------| 
A|-------------------------------------------------| 
F|-------------------------------------------------| 
C|-----0-5p0---7p8p0-7\5p0-----0-5p0---7p8-0-7\5p0-| 
G|-5h6-------6-------------5h6-------6-------------| 
D|-------------------------------------------------| 


Verse 

0:54 (Tempo)  Baizley 
D|-------------------------------------------------| 
A|-8---8-------8---8-------8---8-------8---8-------| 
F|-9---9-------9---9-------9---9-------9---9-------| 
C|-9---9-------9---9-------9---9-------9---9-------| 
G|-7---7-------7---7-------7---7-------7---7-------| 
D|-------0-0-0-------0-000-------0-0-0-------0-0-0-| 
 |       x x x       x xxx       x x x       x x x 
D|-------------------------------------------------| 
A|-4---4-------4---4-------4---4-------4---4-------| (instead of 4 here 
F|-------------------------------------------------| you could play an 8 here) 
C|-5---5-------5---5-------5---5-------5---5-------|  
G|-6---6-------6---6-------6---6-------6---6-------| 
D|-------0-0-0-------0-000-------0-0-0-------0-0-0-| 
 |       x x x       x x x       x x x       x x x 
D|-------------------------------------------------| 
A|-8---8-------8---8-------8---8-------8---8-------| 
F|-9---9-------9---9-------9---9-------9---9-------| 
C|-9---9-------9---9-------9---9-------9---9-------| 
G|-7---7-------7---7-------7---7-------7---7-------| 
D|-------0-0-0-------0-000-------0-0-0-------0-0-0-| 
 |       x x x       x xxx       x x x       x x x 
D|-----------------------------------------| 
A|-4---4-------4---4-----------------------| 
F|-----------------------------------------| 
C|-5---5-------5---5-------12t-13t-14t-12t-| 
G|-6---6-------6---6-------10t--9t-10t--9t-| 
D|-------0-0-0-------0-0-0-----------------| 
         x x x       x x x 

D|-------------------------------------------------| 
A|-8---8-------8---8-------8---8-------8---8-------| 
F|-9---9-------9---9-------9---9-------9---9-------| 
C|-9---9-------9---9-------9---9-------9---9-------| 
G|-7---7-------7---7-------7---7-------7---7-------| 
D|-------0-0-0-------0-000-------0-0-0-------0-0-0-| 
 |       x x x       x xxx       x x x       x x x 
D|-----------------------------------------| 
A|-4---4-------4---4-----------------------| 
F|-----------------------------------------| 
C|-5---5-------5---5-------12t-13t-14t-12t-| 
G|-6---6-------6---6-------10t--9t-10t--9t-| 
D|-------0-0-0-------0-0-0-----------------| 
         x x x       x x x 
D|-------------------------------------------------| 
A|-3---3-------3---3-------3---3-------3---3-------| 
F|-4---4-------4---4-------4---4-------4---4-------| 
C|-4---4-------4---4-------4---4-------4---4-------| 
G|-2---2-------2---2-------2---2-------2---2-------| 
D|-------0-0-0-------0-0-0-------0-0-0-------0-0-0-| 
 |       x x x       x x x       x x x       x x x 
D|-----------------------------------------0-----0-| 
A|-1---1-------1---1-------------------3h5---5h7---| 
F|-------------------------------------------------| 
C|-2---2-------2---2-----------0-0h2---------------| 
G|-3---3-------3---3-------2h3-------3-------------| 
D|-------0-0-0-------0-0-0-------------------------| 
         x x x       x x x 


0:54  Peter 

D|-------------------------------------------------| 
A|-8---8-------8---8-------8---8-------8---8-------| 
F|-9---9-------9---9-------9---9-------9---9-------| 
C|-9---9-------9---9-------9---9-------9---9-------| 
G|-7---7-------7---7-------7---7-------7---7-------| 
D|-------0-0-0-------0-000-------0-0-0-------0-0-0-| 
 |       x x x       x xxx       x x x       x x x 
D|-------------------------------------------------| 
A|-4---4-------4---4-------4---4-------4---4-------| 
F|-------------------------------------------------| 
C|-5---5-------5---5-------5---5-------5---5-------|  
G|-6---6-------6---6-------6---6-------6---6-------| 
D|-------0-0-0-------0-000-------0-0-0-------0-0-0-| 
 |       x x x       x x x       x x x       x x x 
D|-------------------------------------------------| 
A|-8---8-------8---8-------8---8-------8---8-------| 
F|-9---9-------9---9-------9---9-------9---9-------| 
C|-9---9-------9---9-------9---9-------9---9-------| 
G|-7---7-------7---7-------7---7-------7---7-------| 
D|-------0-0-0-------0-000-------0-0-0-------0-0-0-| 
 |       x x x       x xxx       x x x       x x x 
D|-----------------------------------| 
A|-4---4-------4---4--------8t-7t-5t-| 
F|-----------------------------------| 
C|-5---5-------5---5--------8t-7t-5t-| 
G|-6---6-------6---6-----------------| 
D|-------0-0-0-------0-0-0-----------| 
 |       x x x       x x x 
D|-------------------------------------------------| 
A|-------------------------------------------------| 
F|-------------4p0---------------------4p0---------| 
C|-----0-5p0-------7p0-5p0-----0-5p0-------7p0-5p0-| 
G|-5h7-------7-------------5h7-------7-------------| 
D|-------------------------------------------------| 
 | 
D|----------------------------------| 
A|-------------------------8t-7t-5t-| 
F|----------------------------------| 
C|-----0-5p0---7p8p0-7\5p0-8t-7t-5t-| 
G|-5h6-------6----------------------| 
D|----------------------------------| 
 | 
D|-------------------------------------------------| 
A|-------------------------------------------------| 
F|-------------------------------------------------| 
C|-----0-2p0---4p0-2p0---------0-2p0---4p0-2p0-----| 
G|-2h3-------2---------2p0-2h3-------2---------2p0-| 
D|-------------------------------------------------| 
 | 
D|-------------------------------------------0-----0-| 
A|---------------------------------------3h5---5h7---| 
F|---------------------------------------------------| 
C|-----0-2p0---2h4---2p0-------0-0-2p0---------------| 
G|-2h3-------3-----3-----3-2h3---------3-------------| 
D|---------------------------------------------------| 


Pre-Chorus 

1:27 (Tempo)  Baizley 
D|----------------------------------------| 
A|----------------------------------------| 
F|----------------------------------------| 
C|-------9--------------9\7-5--------5/-/-| 
G|-------7--------------7\5-3--------3/-/-| 
D|-0-0-0----------------------------------| 
   x x x 


1:27 Peter 

D|----------------------------------------| 
A|--------------------------1--------1--3-| 
F|-------1--------------1-----------------| 
C|-------2--------------2p0-2--------2--4-| 
G|-------2--------------2p0-3--------3--5-| 
D|-0-0-0----------------------------------| 
   x x x 


Chorus 

1:31 (Tempo: )  Baizley x2 
D|-------------------------| 
A|-------------------------| 
F|-------------------------| 
C|-12t---13t---14t---12t---| 
G|-10t----9t---10t----9t---| 
D|-------------------------| 


1:31 Peter (x2) 

Note: This part is very hard to hear (even in live recordings). 
I'm very confident that these are at least the right notes but if you have 
any suggestions, please let me know immediately. 
D|-------------------------|-------------------------| 
A|-------------7p0-5-------|-------------5p0---------| 
F|-----0-7p0---------7p0---|-----0-4p0-0-----7p0-4p0-| 
C|-5h7-------7-----------7-|-4h5---------------------| 
G|-------------------------|-------------------------| 
D|-------------------------|-------------------------| 
 | 
D|----------------------------------------------------| 
A|-----------0-2p0--------0-2p0--------0-2p0--------0-| 
F|-------0h2------4p0-2p0------4p0-2p0------4p0-2p0---| 
C|-0h2h4----------------------------------------------| 
G|----------------------------------------------------| 
D|----------------------------------------------------| 
The timing on the second half of this last part is odd. 
I recommend watching the footage from Space City Shows 2 to better understand. 


Chorus Outro / Verse II Lead-In 

1:48 (Tempo)  Baizley (x2) 
D|--------------------------------| 
A|--------------------------------| 
F|-----------------11p0-----------| 
C|-------0-12p0---------14p0-12p0-| 
G|-12h14--------14----------------| 
D|--------------------------------| 

1:48 Peter x2 
D|-------------------------| 
A|-------------------------| 
F|-------------4p0---------| 
C|-----0-5p0-------7p0-5p0-| 
G|-5h7-------7-------------| 
D|-------------------------| 


Verse 

1:52 (Tempo)  Baizley 
D|-------------------------------------------------| 
A|-8---8-------8---8-------8---8-------8---8-------| 
F|-9---9-------9---9-------9---9-------9---9-------| 
C|-9---9-------9---9-------9---9-------9---9-------| 
G|-7---7-------7---7-------7---7-------7---7-------| 
D|-------0-0-0-------0-000-------0-0-0-------0-0-0-| 
 |       x x x       x xxx       x x x       x x x 
D|-------------------------------------------------| 
A|-4---4-------4---4-------4---4-------4---4-------| 
F|-------------------------------------------------| 
C|-5---5-------5---5-------5---5-------5---5-------|  
G|-6---6-------6---6-------6---6-------6---6-------| 
D|-------0-0-0-------0-000-------0-0-0-------0-0-0-| 
 |       x x x       x x x       x x x       x x x 
D|-------------------------------------------------| 
A|-8---8-------8---8-------8---8-------8---8-------| 
F|-9---9-------9---9-------9---9-------9---9-------| 
C|-9---9-------9---9-------9---9-------9---9-------| 
G|-7---7-------7---7-------7---7-------7---7-------| 
D|-------0-0-0-------0-000-------0-0-0-------0-0-0-| 
 |       x x x       x xxx       x x x       x x x 
D|-----------------------------------------| 
A|-4---4-------4---4-----------------------| 
F|-----------------------------------------| 
C|-5---5-------5---5-------12t-13t-14t-12t-| 
G|-6---6-------6---6-------10t--9t-10t--9t-| 
D|-------0-0-0-------0-0-0-----------------| 
         x x x       x x x 

D|-------------------------------------------------| 
A|-8---8-------8---8-------8---8-------8---8-------| 
F|-9---9-------9---9-------9---9-------9---9-------| 
C|-9---9-------9---9-------9---9-------9---9-------| 
G|-7---7-------7---7-------7---7-------7---7-------| 
D|-------0-0-0-------0-000-------0-0-0-------0-0-0-| 
 |       x x x       x xxx       x x x       x x x 
D|-----------------------------------------| 
A|-4---4-------4---4-----------------------| 
F|-----------------------------------------| 
C|-5---5-------5---5-------12t-13t-14t-12t-| 
G|-6---6-------6---6-------10t--9t-10t--9t-| 
D|-------0-0-0-------0-0-0-----------------| 
         x x x       x x x 
D|-------------------------------------------------| 
A|-3---3-------3---3-------3---3-------3---3-------| 
F|-4---4-------4---4-------4---4-------4---4-------| 
C|-4---4-------4---4-------4---4-------4---4-------| 
G|-2---2-------2---2-------2---2-------2---2-------| 
D|-------0-0-0-------0-0-0-------0-0-0-------0-0-0-| 
 |       x x x       x x x       x x x       x x x 
D|-----------------------------------------0-----0-| 
A|-1---1-------1---1-------------------3h5---5h7---| 
F|-------------------------------------------------| 
C|-2---2-------2---2-----------0-0h2---------------| 
G|-3---3-------3---3-------2h3-------3-------------| 
D|-------0-0-0-------0-0-0-------------------------| 
         x x x       x x x 


1:52  Peter 

D|-------------------------------------------------| 
A|-------------------------------------------------| 
F|-------------4p0---------------------4p0---------| 
C|-----0-5p0-------7p0-5p0-----0-5p0-------7p0-5p0-| 
G|-5h7-------7-------------5h7-------7-------------| 
D|-------------------------------------------------| 
 | 
D|-------------------------------------------------| 
A|-------------------------------------------------| 
F|-------------------------------------------------| 
C|-----0-5p0---7p8p0-7\5p0-----0-5p0---7p8-0-7\5p0-| 
G|-5h6-------6-------------5h6-------6-------------| 
D|-------------------------------------------------| 
 | 
D|-------------------------------------------------| 
A|-------------------------------------------------| 
F|-------------4p0---------------------4p0---------| 
C|-----0-5p0-------7p0-5p0-----0-5p0-------7p0-5p0-| 
G|-5h7-------7-------------5h7-------7-------------| 
D|-------------------------------------------------| 
 | 
D|----------------------------------| 
A|-------------------------8t-7t-5t-| 
F|----------------------------------| 
C|-----0-5p0---7p8p0-7\5p0-8t-7t-5t-| 
G|-5h6-------6----------------------| 
D|----------------------------------| 
 | 
D|-------------------------------------------------| 
A|-------------------------------------------------| 
F|-------------4p0---------------------4p0---------| 
C|-----0-5p0-------7p0-5p0-----0-5p0-------7p0-5p0-| 
G|-5h7-------7-------------5h7-------7-------------| 
D|-------------------------------------------------| 
 | 
D|----------------------------------| 
A|-------------------------8t-7t-5t-| 
F|----------------------------------| 
C|-----0-5p0---7p8p0-7\5p0-8t-7t-5t-| 
G|-5h6-------6----------------------| 
D|----------------------------------| 
 | 
D|-------------------------------------------------| 
A|-------------------------------------------------| 
F|-------------------------------------------------| 
C|-----0-2p0---4p0-2p0---------0-2p0---4p0-2p0-----| 
G|-2h3-------2---------2p0-2h3-------2---------2p0-| 
D|-------------------------------------------------| 
 | 
D|-------------------------------------------0-----0-| 
A|---------------------------------------3h5---5h7---| 
F|---------------------------------------------------| 
C|-----0-2p0---2h4---2p0-------0-0-2p0---------------| 
G|-2h3-------3-----3-----3-2h3---------3-------------| 
D|---------------------------------------------------| 


Pre-Chorus 2 

2:24 (Tempo)  Baizley 
D|----------------------------------------| 
A|----------------------------------------| 
F|----------------------------------------| 
C|-------9--------------9\7-5--------5/-/-| 
G|-------7--------------7\5-3--------3/-/-| 
D|-0-0-0----------------------------------| 
   x x x 
2:24 Peter 
D|----------------------------------------| 
A|--------------------------1--------1--3-| 
F|-------1--------------1-----------------| 
C|-------2--------------2p0-2--------2--4-| 
G|-------2--------------2p0-3--------3--5-| 
D|-0-0-0----------------------------------| 
   x x x 


Chorus 2 

2:29 (Tempo)  Baizley (x2) 
D|-------------------------| 
A|-------------------------| 
F|-------------------------| 
C|-12t---13t---14t---12t---| 
G|-10t----9t---10t----9t---| 
D|-------------------------| 


2:29 Peter (x2) 

D|-------------------------|-------------------------| 
A|-------------7p0-5-------|-------------5p0---------| 
F|-----0-7p0---------7p0---|-----0-4p0-0-----7p0-4p0-| 
C|-5h7-------7-----------7-|-4h5---------------------| 
G|-------------------------|-------------------------| 
D|-------------------------|-------------------------| 
 | 
D|----------------------------------------------------| 
A|-----------0-2p0--------0-2p0--------0-2p0--------0-| 
F|-------0h2------4p0-2p0------4p0-2p0------4p0-2p0---| 
C|-0h2h4----------------------------------------------| 
G|----------------------------------------------------| 
D|----------------------------------------------------| 


Solo 

2:45 (Tempo) Baizley 

D|---------------------------------------------------| 
A|-8-------8--7-------7------------------------------| 
F|------7----------7-----9--------9--7-----------7h9-| 
C|----------------------------10-------------7h9-----| 
G|---------------------------------------------------| 
D|---------------------------------------------------| 
 | 
D|---------------------------------------------| 
A|-8-------8--7-------7----------------------7-| 
F|------7----------7-----9--------9--7----9----| 
C|----------------------------10---------------| 
G|---------------------------------------------| 
D|---------------------------------------------| 
 | 
D|----------------------------------------------------------| 
A|-8~---10--12--15--12------12--15--13--12--12^-10----8--10-| 
F|----------------------12----------------------------------| 
C|----------------------------------------------------------| 
G|----------------------------------------------------------| 
D|----------------------------------------------------------| 
 | 
D|----------------------------------------------------------| 
A|-12----12h13p12p10--8--7--8--7---8--------8h10-7----------| 
F|-----------------------------------9----9-----------8--10-| 
C|----------------------------------------------------------| 
G|----------------------------------------------------------| 
D|----------------------------------------------------------| 


2:45 (Tempo) Peter 

D|-------------7--------------------------------------------| 
A|-3/-8~---10-----10--8--7--8p7-5--7--8--10--7~-------------| 
F|------------------------------------------------------7h9-| 
C|--------------------------------------------------7p9-----| 
G|----------------------------------------------------------| 
D|----------------------------------------------------------| 
 | 
D|----------7--10~------10--8----7--8--------------| 
A|-8~---10-----------7-----------------10----8--10-| 
F|-------------------------------------------------| 
C|-------------------------------------------------| 
G|-------------------------------------------------| 
D|-------------------------------------------------| 
 | 
D|------------7-----------7------------------------| 
A|------7--8-----8-----8-----10--8--10^-7----5--7--| 
F|-9----------------7------------------------------| 
C|-------------------------------------------------| 
G|-------------------------------------------------| 
D|-------------------------------------------------| 
 | 
D|--------------------------------------------------------| 
A|-8----8h10p8p7--5-----5-------5-------------5-----------| 
F|-------------------7-----7------5-----5-5h7--------4--5-| 
C|----------------------------------------------7---------| 
G|--------------------------------------------------------| 
D|--------------------------------------------------------| 


Chorus 3 

3:18 (Tempo)  Baizley 

D|-------------------------| 
A|-------------------------| 
F|-------------------------| 
C|-12t---13t---14t---12t---| 
G|-10t----9t---10t----9t---| 
D|-------------------------| 
 | 
D|-------------------------| 
A|-------------------------| 
F|-------------------------| 
C|-12t---13t---14t---16t---| 
G|-10t----9t---10t---12t---| 
D|-------------------------| 

3:18 Peter (x2) 
D|----------------| 
A|----------------| 
F|----------------| 
C|-12t-13t-10t-7t-| 
G|-10t--9t--7t-5t-| 
D|-10t-11t--8t-5t-| 


Lead-In to Outro 

3:34 (Tempo) Baizley 

D|----------------------------------------------------------------------| 
A|----------------------------------------------------------------------| 
F|-12-12-12-12-12-12-11-11-11-12-12-12-11-11-11-9-9-9----------11-11-11-| 
C|----------------------------------------------------12-12-12----------| 
G|-10-10-10-10-10-10-10-10-10-10-10-10--9--9--9-9-9-9--9--9--9--9--9--9-| 
D|----------------------------------------------------------------------| 
 | 
D|---------------------------------| 
A|----------------------------4----| 
F|-9-9-9-7-7-7----------9----------| 
C|-------------10-10-10-------5----| 
G|-7-7-7-7-7-7--7--7--7-7-----6----| 
D|------------------------0-0------| 
                          x x 


3:34 Peter 

D|------------------------| 
A|------------------------| 
F|------------------------| 
C|-12t-12t-10t-------5----| 
G|-10t--9t--7t-------6----| 
D|-------------0-0-0------| 
               x x x 


Outro 

3:42 (Tempo: 117/118~)  Baizley (x2) 
D|----------------------------------------------------| 
A|--------------------------------------------------0-| 
F|---------------------------------------------9/10---| 
C|-------10\9---7---9-----10\9---------0-7p0----------| 
G|-------8-\7---5---7-----8-\7-----7h8-------8--------| 
D|-0-0-0------0--0----0-0------0-0--------------------| 
 | x x x      x  x    x x      x x 
D|------------------------------------------------0-| 
A|--------------------------------------------3/4---| 
F|--------------------------------------------------| 
C|-------5\4---2---4-----5\4---------0-2p0----------| 
G|-------3\2---0---2-----3\2-----2h3-------3--------| 
D|-0-0-0-----0---0---0-0-----0-0--------------------| 
 | x x x     x   x   x x     x x 
D|----------------------------------------------------------| 
A|---------------------------------------0---------------12-| 
F|-------------------------------------------------11h13----| 
C|-------10\9---7---9-----10/13------------9----------------| 
G|-------8-\7---5---7-----8-/11-----9h11----h11-11----------| 
D|-0-0-0------0--0----0-0-------0-0-------------------------| 
 | x x x      x  x    x x       x x 
D|---------------------------------------------------|---| 
A|---------------------------------------------------|---| 
F|---------------------------------------------------|-4-| 
C|-------10\9---7---9-----10---------------------0h3-|-2-| 
G|-------8-\7---5---7-----8--------0h1p0---0h1h3-----|---| 
D|-0-0-0------0--0----0-0----0h1h3-------3-----------|---| 
   x x x      x  x    x x 


3:42  Peter 

D|----------------------------------------------------| 
A|--------------------------------------------------0-| 
F|---------------------------------------------9/10---| 
C|-------10\9---7---9-----10\9---------0-7p0----------| 
G|-------8-\7---5---7-----8-\7-----7h8-------8--------| 
D|-0-0-0------0--0----0-0------0-0--------------------| 
 | x x x      x  x    x x      x x 
D|------------------------------------------------0-| 
A|--------------------------------------------3/4---| 
F|--------------------------------------------------| 
C|-------5\4---2---4-----5\4---------0-2p0----------| 
G|-------3\2---0---2-----3\2-----2h3-------3--------| 
D|-0-0-0-----0---0---0-0-----0-0--------------------| 
 | x x x     x   x   x x     x x 
D|----------------------------------------------------------| 
A|---------------------------------------0---------------12-| 
F|-------------------------------------------------11h13----| 
C|-------10\9---7---9-----10/13------------9----------------| 
G|-------8-\7---5---7-----8-/11-----9h11----h11-11----------| 
D|-0-0-0------0--0----0-0-------0-0-------------------------| 
 | x x x      x  x    x x       x x 
D|---------------------------------------------------| 
A|---------------------------------------------------| 
F|---------------------------------------------------| 
C|-------10\9---7---9-----10---------------------0h3-| 
G|-------8-\7---5---7-----8--------0h1p0---0h1h3-----| 
D|-0-0-0------0--0----0-0----0h1h3-------3-----------| 
   x x x      x  x    x x 


0:30 

D|-------------------------------------------------------------| 
A|-----------------------------------------------------------0-| 
F|-------17\16---14---16-----17\16---------------------16h17---| 
C|-------------------------------------------0-14p0------------| 
G|-------15\14---12---14-----15\14-----14h15--------15---------| 
D|-0-0-0-------0----0----0-0-------0-0-------------------------| 
 | x x x       x    x    x x       x x 
D|----------------------------------------------------------| 
A|--------------------------------------------------------0-| 
F|-------12\11---9---11-----12\11-------------------11h12---| 
C|-----------------------------------------0-9p0------------| 
G|-------10-\9---7---9------10-\9-----9h10-------10---------| 
D|-0-0-0-------0---0----0-0-------0-0-----------------------| 
 | x x x       x   x    x x       x x 
D|---------------------------------------------------------| 
A|-------------------------------------------------------0-| 
F|---------------------------------------------------------| 
C|-------10\9---7---9-----10/13---------------------11h13--| 
G|-------8-\7---5---7-----8-/11-------------9h11-11--------| 
D|-0-0-0-8-\7-0-5-0-7-0-0-8-/11-0-0-9h11-11----------------| 
 | x x x      x   x   x x       x x 
D|----------------------------------------------------| 
A|----------------------------------------------------| 
F|--------------------------------------------------4-| 
C|-------10\9--7---9-----10---------------------0h3-2-| 
G|-------8-\7--5---7-----8--------0h1p0---0h1h3-------| 
D|-0-0-0------0--0---0-0----0h1h3-------3-------------| 
   x x x      x  x   x x 
END  
  

top 5 | baroness
top rock'n roll
Outras músicas do artista letras do(a) Baroness
Top cifras »Top artistas »
Petaxxon Comunicação Online
Cifras.com.br - Melhor e mais completo site de cifras e tablaturas do Brasil
Mais de 1 milhão de acordes de músicas cadastradas desde 2003
As informações contidas no nosso site são colaborações de seus usuários e podem conter erros, sendo assim, não nos responsabilizamos sobre nenhuma destas.
close
menos
mais
close
Cor dos acordes:

Cor da letra:

 

save
close
close
 
redimensionar