Cifras e Tablaturas
Bathory

Bathory

The Lake

Cifras Cancelar Versão de Impressão
cifras

Bathory - The Lake

fixar na tela  
Exibindo: vídeo-aula ver clipes redimensionar

Tom:

  
Standart Tuning 

Intro   
e|-------------------------| 
B|-------------------------| 
G|-------------------------| 
D|-2----2----2-------------| 
A|-0-0000-0000-000333-555--| 
E|----------------111-333--| 

Riff 1  
e|------------------------------------------------------------------------------| 
B|------------------------------------------------------------------------------| 
G|------------------------------------------------------------------------------| 
D|-------------------------99-----------------------------99-8/7-7/3-3/5-5/3/2--| 
A|-5-000-5-000-5-000-5-000-66-000-5-000-5-000-5-000-5-000-66-6/5-5/1-1/3-3/1/0--| 
E|------------------------------------------------------------------------------| 

Main Riff 
e|----------------------------------| 
B|----------------------------------| 
G|----------------------------------| 
D|-2222222222222222--------22222222-| 
A|-00000000000000005555555511111111-| 
E|-----------------33333333---------| 

Other Riff 
I throw my eyes into the lake.. 
  
e|---------------------------------| 
B|---------------------------------| 
G|---------------------------------| 
D|-10-1010-5-5-5-5-7-7-7-77-7/10---| 
A|-8--8-8--3-3-3-3-5-5-5-55-5------|8..  repeat 
E|---------------------------------| 
  
Other riff 
on the bottom of the lake.. 

e|--------------------| 
B|--------------------| 
G|--------------------| 
D|-2-222-2------------| repeat 
A|-0-000-0-3-33-5-55--| 
E|---------1-11-3-33--| 

and then 

e|--------------------| 
B|--------------------| 
G|--------------------| 
D|--------------------| 
A|-3-333-3------1-11--| 
E|---------4-44-------| 

End  
e|----------------------------------1---3---| 
B|----------------------------------1---3---| 
G|----------------------------------1---3---| 
D|----------------------------------------2-| 
A|-5-0005-55-5-5-0005-55-5-5-0005-33--55--0-| 
E|--------33-3--------33-3--------11--33----|  

tabs written by Angeroath from the band Satanic Hatred 
  

************************************ 

| /  Slide up 

************************************ 
  

top 5 | bathory
top heavy metal
Outras músicas do artista letras do(a) Bathory
Top cifras »Top artistas »
Petaxxon Comunicação Online
Cifras.com.br - Melhor e mais completo site de cifras e tablaturas do Brasil
Mais de 1 milhão de acordes de músicas cadastradas desde 2003
As informações contidas no nosso site são colaborações de seus usuários e podem conter erros, sendo assim, não nos responsabilizamos sobre nenhuma destas.
close
menos
mais
close
Cor dos acordes:

Cor da letra:

 

save
close
close
 
redimensionar