Cifras e Tablaturas
Battle Beast

Battle Beast

The Black Swordsman

Cifras Cancelar Versão de Impressão
cifras

Battle Beast - The Black Swordsman

fixar na tela  
Exibindo: vídeo-aula ver clipes redimensionar
  
Intro 
          Asus2 Asus4        F    Em 
e|----------0-----0-----------1-----0--| 
B|----------0-----3-----------1-----0--| 
G|----------2-----2-----------2-----0--| 
D|----------2-----2-----------3-----2--| 
A|-0-----3--0--0--0-----0--3--3-----2--| 
E|----0--------------1--------1--1-----| 

         Asus2 Asus4         F 
e|----------0-----0-----------1--------| 
B|----------0-----3-----------1--------| 
G|----------2-----2-----------2--------| 
D|----------2-----2-----------3--------| 
A|-0-----3--0--0--0-----0--3--3--------| 
E|----0--------------1--------1--------| 

          Asus2 Asus4        F    Em 
e|----------0-----0-----------1-----0--| 
B|----------0-----3-----------1-----0--| 
G|----------2-----2-----------2-----0--| 
D|----------2-----2-----------3-----2--| 
A|-0-----3--0--0--0-----0--3--3-----2--| 
E|----0--------------1--------1--1-----| 

            G    Gb     G 
e|----------3-----------3--------------| 
B|----------0-----1-----0--------------| 
G|----------0-----2-----0--------------| 
D|-------0--0-----3-----0--------------| 
A|----2-----2-----3-----2--------------| 
E|-3--------3-----------3--------------| 

verse 1 
     Can you feel my pain? 
          Asus2 Asus4        F    Em 
e|----------0-----0-----------1-----0--| 
B|----------0-----3-----------1-----0--| 
G|----------2-----2-----------2-----0--| 
D|----------2-----2-----------3-----2--| 
A|-0-----3--0--0--0-----0--3--3-----2--| 
E|----0--------------1--------1--1-----| 

   Can you see me?  In the fire?  
         Asus2 Asus4         F 
e|----------0-----0-----------1--------| 
B|----------0-----3-----------1--------| 
G|----------2-----2-----------2--------| 
D|----------2-----2-----------3--------| 
A|-0-----3--0--0--0-----0--3--3--------| 
E|----0--------------1--------1--------| 

    Can you hear my screaaaaaams? Is this   
          Asus2 Asus4         F    Em 
e|----------0-----0-----------1-----0--| 
B|----------0-----3-----------1-----0--| 
G|----------2-----2-----------2-----0--| 
D|----------2-----2-----------3-----2--| 
A|-0-----3--0--0--0-----0--3--3-----2--| 
E|----0--------------1--------1--1-----| 

  reeaaaaaaal?     Or am I dreaaaaaming? 
            G            Asus4  Asus2 
e|----------3--------------0-----0-----| 
B|----------0--------------3-----0-----| 
G|----------0--------------2-----2-----| 
D|-------0--0-----------0--2-----2-----| 
A|----2-----2--------0-----0--0--0-----| 
E|-3--------3-----3--------------------| 

verse 2 
  Can you taste my   feaaaaaaaaaaaaar? 
          Asus2 Asus4         F    Em 
e|----------0-----0-----------1-----0--| 
B|----------0-----3-----------1-----0--| 
G|----------2-----2-----------2-----0--| 
D|----------2-----2-----------3-----2--| 
A|-0-----3--0--0--0-----0--3--3-----2--| 
E|----0--------------1--------1--1-----| 
  
 Oh noooooooooooooo Is this real? 
         Asus2 Asus4         F 
e|----------0-----0-----------1--------| 
B|----------0-----3-----------1--------| 
G|----------2-----2-----------2--------| 
D|----------2-----2-----------3--------| 
A|-0-----3--0--0--0-----0--3--3--------| 
E|----0--------------1--------1--------| 

  Can't believe my   eeeeeyeeees 
          Asus2 Asus4        F    Em 
e|----------0-----0-----------1-----0--| 
B|----------0-----3-----------1-----0--| 
G|----------2-----2-----------2-----0--| 
D|----------2-----2-----------3-----2--| 
A|-0-----3--0--0--0-----0--3--3-----2--| 
E|----0--------------1--------1--1-----| 

I sweaaaaaaar I'll tear your wings apaaaaaaart 
            G    Gb         G         Am 
e|----------3---------------3----------0--------| 
B|----------0-----1---------0----------1--------| 
G|----------0-----2---------0----------2--------| 
D|-------0--0-----3---------0----------2--------| 
A|----2-----2-----3---------2----------0--------| 
E|-3--------3---------------3-------------------| 
  

cifra enviadasem correções
enviado porenviada por:hugo_rodrigues
top 5 | battle beast
top rock'n roll
Outras músicas do artista letras do(a) Battle Beast
Top cifras »Top artistas »
Petaxxon Comunicação Online
Cifras.com.br - Melhor e mais completo site de cifras e tablaturas do Brasil
Mais de 1 milhão de acordes de músicas cadastradas desde 2003
As informações contidas no nosso site são colaborações de seus usuários e podem conter erros, sendo assim, não nos responsabilizamos sobre nenhuma destas.
close
menos
mais
close
Cor dos acordes:

Cor da letra:

 

save
close
close
 
redimensionar