Bauhaus

Bauhaus

Dark Entries
Composição de (Bauhaus)
Dark Entries by Bauhaus 
Tabbed by Soat 
Standard Tuning 
 
Intro 
---------------------------------------------------------------------| 
---------------------------------------------------------------------| 
---------------------------------------------------------------------| 
---------------------------------------------------------------------| 
---------------------------------------------------------------------| 
-5-5-5-5-5-5-5555-4-4-4-4-4-4-4444-3-3-3-3-3-3-3333-2-2-2-2-2-2-2222-| 
 
1st Verse 
---------------------------------------------------------| 
---------------------------------------------------------| 
---------------------------------------------------------| 
---------------------------------------------------------| 
---------------------------------------------------------| 
-5--5-5--5-5-5-4--4-4--4-4-4-3--3-3--3-3-3-2--2-2--2-2-2-| 
 
2nd Verse 
-------------------------------------------------------------------------| 
-------------------------------------------------------------------------| 
-------------------------------------------------------------------------| 
-------------------------------------------------------------------------| 
-------------------------------------------------------------------------| 
-17-17-17-17-17-17-17-17-16-16-16-16-16-16-16-16-19-19-19-19-19-19-19-19-| 
 
-------------------------| 
-------------------------| 
-------------------------| 
-------------------------| 
-------------------------| 
-14-14-14-14-14-14-14-14-| 
 
3rd Verse 
-------------------------------------------------------------------------| 
-------------------------------------------------------------------------| 
-------------------------------------------------------------------------| 
-------------------------------------------------------------------------| 
-------------------------------------------------------------------------| 
-17-17-17-17-17-17-17-17-16-16-16-16-16-16-16-16-15-15-15-15-15-15-15-15-| 
 
-------------------------| 
-------------------------| 
-------------------------| 
-------------------------| 
-------------------------| 
-14-14-14-14-14-14-14-14-| 
 
Chorus 
-------0-----------0----------0----------0-| 
-------0-----------0----------0----------0-| 
-------------------------------------------| 
-------------------------------------------| 
-------------------------------------------| 
-5-5--5------4-4--4-----3-3--3-----2-2--2--| 
 
Bridge 
------------------------------------------------------------------------| 
------------------------------------------------------------------------| 
-9----10-10-10-10-12--999----12-12-12-12-14--999----10-10-10-10-10--999-| 
-9----10-10-10-10-12--999----12-12-12-12-14--999----10-10-10-10-12--999-| 
-7-----8--8--8--8-10--777----10-10-10-10-12--777-----8--8--8--8-10--777-| 
------------------------------------------------------------------------|

Enviado por: Leandro Alves

Corrigido por: sem correções