Cifras e Tablaturas
Beach Slang

Beach Slang

Spin The Dial

Cifras Cancelar Versão de Impressão

Beach Slang - Spin The Dial

Tom: E

  			 


Intro / Verse 
e|-----------------------------------------------------------------------------------------------| 
B|-----------------------------------------------------------------------------------------------| 
G|-----------------------------------------------------------------------------------------------| 
D|---6-----4-----2--2--2--6-----4-----2--2--2--2--6-----4-----2--2--2--6-----4-----2--2--2--2----| 
A|---0--0--0--0--0--0--0--0--0--0--0--0--0--0--0--0--0--0--0--0--0--0--0--0--0--0--0--0--0--0----| 
E|-----------------------------------------------------------------------------------------------| 

e|---------------------------------------------------------------------------| 
B|---------------------------------------------------------------------------| 
G|---------------------------------------------------------------------------| (occasionally thrown in) 
D|---------6-----4-----------------6-----4-----------------------------------| 
A|---2--2--2--2--2--2--2--2--2--2--2--2--2--2--2--2--------------------------| 
E|---0--0--0--0--0--0--0--0--0--0--0--0--0--0--0--0--------------------------| 

Chorus 
e|-----------------------------------------------------------------------------| 
B|-----------------------------------------------------------------------------| 
G|-----2-----2-----------------------------------------------------------------| 
D|--2--0-----2-----------------------------------------------------------------| 
A|--0--3--4--0-----------------------------------------------------------------| 
E|--3-----5--------------------------------------------------------------------| 

Halo on my Heart-part 
e|---------------------------------------------------------------------------| 
B|---------------------------------------------------------------------------| 
G|--2--1---------------------------------------------------------------------| 
D|--2--2---------------------------------------------------------------------| 
A|--0--2---------------------------------------------------------------------| Alternating these 
E|---------------------------------------------------------------------------| 

Outro 
e|-----------------------------------------------------------------------------------------------| 
B|-----------------------------------------------------------------------------------------------| 
G|-----------------------------------------------------------------------------------------------| 
D|---6-----4-----2--2--2--6-----4-----2--2--2--2--6-----4-----2--2--2--6-----4-----2--2--2--2----| 
A|---0--0--0--0--0--0--0--0--0--0--0--0--0--0--0--0--0--0--0--0--0--0--0--0--0--0--0--0--0--0----| 
E|-----------------------------------------------------------------------------------------------| 

e|---------------------------------------------------------------------------| 
B|---------------------------------------------------------------------------| 
G|---------------------------------------------------------------------------| (occasionally thrown in) 
D|---------6-----4-----------------6-----4-----------------------------------| 
A|---2--2--2--2--2--2--2--2--2--2--2--2--2--2--2--2--------------------------| 
E|---0--0--0--0--0--0--0--0--0--0--0--0--0--0--0--0--------------------------| 
End on E 
    	
fixar
fixar inscrever-se

enviado porenviado por: alyslima
cifra enviadaCorrigida por: sem correções
logo top cifrasComente
ico música do artistaMúsicas deste artista
ico curtiuCurtiu?
ico destaqueDestaque
Petaxxon Comunicação Online

Cifras.com.br - Melhor e mais completo site de cifras e tablaturas do Brasil Mais de 1 milhão de acordes de músicas cadastradas desde 2003
As informações contidas no nosso site são colaborações de seus usuários e podem conter erros, sendo assim, não nos responsabilizamos sobre nenhuma destas.

close
menos
mais
close
Cor dos acordes:

Cor da letra:

close
Alinhar acordes a direita Alinhar acordes a esquerda Alinhar acordes em baixo Alinhar acordes no topo
close
  Mostrar todos os acordes Esconder acordes muito fáceis Esconder acordes fáceis Esconder acordes intermediários
redimensionar
glossário