Cifras e Tablaturas
Bert Jansch

Bert Jansch

Peregrinations

Cifras Cancelar Versão de Impressão
cifras

Bert Jansch - Peregrinations

fixar na tela  
Exibindo: vídeo-aula ver clipes redimensionar

Tom:

  
   *       *       *       *        *       *       *       *        
e|---------7-------0--------------|-----------------0--------------| 
B|-------------10-----------------|-------------------------0---1--| 
G|-----9---------------4----------|-7-------------------2----------| 
D|-------------------------7---5--|-----4--------------------------| 
A|--------------------------------|---------7---2---3--------------| 
E|-0------------------------------|--------------------------------| 

   *       *       *       *        *       *       *       *        
e|-----------------------------0--|-2h3p2---0-------0--------------| 
B|-4---------------0-------2-h3---|-----------3-----0--------------| 
G|---------0---2------------------|-2h4p2---0----------------------| 
D|-----4-----------2p1h2---4------|-------------4---2--------------| 
A|-2------------------------------|--------------------------------| 
E|--------------------------------|--------------------------------| 

   *       *       *       *        *       *       *       *        
e|---------7-------0--------------|-----------------0--------------| 
B|-------------10-----------------|-------------------------0---1--| 
G|----/9---------------4----------|-7-------------------2----------| 
D|-------------------------7---5--|-----4--------------------------| 
A|--------------------------------|---------7---2---3--------------| 
E|--------------------------------|--------------------------------| 

   *       *       *       *        *       *       *       *        
e|-----------------------------0--|-2h3p2---0-------0--------------| 
B|-4---------------0-------2-h3---|-----------3-----0--------------| 
G|---------0---2------------------|-2h4p2---0----------------------| 
D|-----4-----------2p1h2---4------|-------------4---2--------------| 
A|-2------------------------------|--------------------------------| 
E|--------------------------------|--------------------------------| 


   *       *       *       *        *       *       *       *        *       *       *       *                 
e|---------0---3---7--------------|-10------8--\7--\5-------8------|-7-----------12--7--------------| 
B|-------0-0---------------8------|-----------------7-------7------|-----------10------8h10--8p7---7| 
G|-----5---2---0---------------0--|-----------------7--------------|-----------------------------9--| 
D|--------------------------------|-7---------------0-----------4--|-5---------------9--------------| 
A|---------------------6---7h9----|-----9-------------------6------|-----7---9----------------------| 
E|-----------------5--------------|--------------------------------|-------------------------7------| 

   *       *       *       *        *       *            
e|-7-------0----------------------|-7-------0------| 
B|---------0---------------8p7---7|---------0------| 
G|-----7-----------------------9--|-----7----------| 
D|-0-------2----------------------|-0-------2------| 
A|--------------------------------|----------------| 
E|-------------------------7------|----------------| 

   *       *       *       *        *       *       *              
e|---------------------3---3---5/-|-7---10\-5-------0------| 
B|-----0--------------------------|-7-----------7/--0------| 
G|-------------0---2--------------|-7-------6--------------| 
D|---------4p3-----0-------4------|---------4-------2------| 
A|--------------------------------|------------------------| 
E|--------------------------------|-7----------------------| 

   *       *       *       *        *       *       *       *             
e|---------------------3---3---0--|-7-----------0---------0-3------| 
B|-----0--------------------------|-7---10\-7-------3-----------5--| 
G|-------------0---2--------------|-7-------6-----------0----------| 
D|---------4p3-----0-------4------|---------4-------5p4-----2------| 
A|--------------------------------|-----------------------------4--| 
E|--------------------------------|-7------------------------------| 

   *       *       *       *        *       *       
e|-2-----------3/--5-------3---5/-|-7-------0------| 
B|-3-------------------7/--0------|-----8---0------| 
G|-2---------------6--------------|----------------| 
D|-0---------------4-------2------|-0-------2------| 
A|--------------------------------|----------------| 
E|--------------------------------|----------------| 

   *       *       *       *        *       *       *              
e|---------------------3---3---5/-|-7---10\-5-------0------| 
B|-----0--------------------------|-7-----------7/--0------| 
G|-------------0---2--------------|-7-------6--------------| 
D|---------4p3-----0-------4------|---------4-------2------| 
A|--------------------------------|------------------------| 
E|--------------------------------|-7----------------------| 

   *       *       *       *        *       *       *       *             
e|---------------------3---3---0--|-7-----------0---------0-3------| 
B|-----0--------------------------|-7---10\-7-------3-----------5--| 
G|-------------0---2--------------|-7-------6-----------0----------| 
D|---------4p3-----0-------4------|---------4-------5p4-----2------| 
A|--------------------------------|-----------------------------4--| 
E|--------------------------------|-7------------------------------| 

   *       *       *    
e|-2-----------3/--5-----| 
B|-3-------------------7\| 
G|-2---------------6-----| 
D|-0---------------4-----| 
A|-----------------------| 
E|-----------------------| 

   *       *       *       *        *       *       *       *        
e|-0-------7-------0--------------|-----------------0--------------| 
B|-0-----------10-----------------|-------------------------0---1--| 
G|-----9---------------4----------|-7-------------------2----------| 
D|-2-----------------------7---5--|-----4--------------------------| 
A|--------------------------------|---------7---2---3--------------| 
E|--------------------------------|--------------------------------| 

   *       *       *       *        *       *       *       *        
e|-----------------------------0--|-2h3p2---0-------0--------------| 
B|-4---------------0-------2-h3---|-----------3-----0--------------| 
G|---------0---2------------------|-2h4p2---0----------------------| 
D|-----4-----------2p1h2---4------|-------------4---2--------------| 
A|-2------------------------------|--------------------------------| 
E|--------------------------------|--------------------------------| 

   *       *       *       *        *       *       *       *        
e|---------7-------0--------------|-----------------0--------------| 
B|-------------10-----------------|-------------------------0---1--| 
G|----/9---------------4----------|-7-------------------2----------| 
D|-------------------------7---5--|-----4--------------------------| 
A|--------------------------------|---------7---2---3--------------| 
E|--------------------------------|--------------------------------| 

   *       *       *       *        *       *       *       *        
e|-----------------------------0--|-2h3p2---0-------0--------------| 
B|-4---------------0-------2-h3---|-----------3-----0--------------| 
G|---------0---2------------------|-2h4p2---0----------------------| 
D|-----4-----------2p1h2---4------|-------------4---2--------------| 
A|-2------------------------------|--------------------------------| 
E|--------------------------------|--------------------------------| 


   *       *       *       *        *       *       *       *        *       *       *       *                 
e|---------0---3---7--------------|-10------8--\7--\5-------8------|-7-----------12--7--------------| 
B|-------0-0---------------8------|-----------------7-------7------|-----------10------8h10--8p7---7| 
G|-----5---2---0---------------0--|-----------------7--------------|-----------------------------9--| 
D|-----------------4--------------|-7---------------0-----------4--|-5---------------9--------------| 
A|---------------------6---7h9----|-----9-------------------6------|-----7---9----------------------| 
E|--------------------------------|--------------------------------|-------------------------7------| 

   *       *       *       *        *       *       *       *         
e|-7-------0----------------------|-7-----------7------------------| 
B|---------0---------------8p7---7|-7---7-------7b8----------------| 
G|-----7-----------------------9--|--------------------------------| 
D|-0-------2----------------------|-0------------------------------| 
A|--------------------------------|--------------------------------| 
E|-------------------------7------|-----------0--------------------| 


*********************************** 

| *   Rythm 
| h   Hammer-on 
| p   Pull-off 
| /   Slide up 
| \   Slide down 
| b   Bend 

*********************************** 
  

top 5 | bert jansch
top diversos
Outras músicas do artista letras do(a) Bert Jansch
Top cifras »Top artistas »
Petaxxon Comunicação Online
Cifras.com.br - Melhor e mais completo site de cifras e tablaturas do Brasil
Mais de 1 milhão de acordes de músicas cadastradas desde 2003
As informações contidas no nosso site são colaborações de seus usuários e podem conter erros, sendo assim, não nos responsabilizamos sobre nenhuma destas.
close
menos
mais
close
Cor dos acordes:

Cor da letra:

 

save
close
close
 
redimensionar