Cifras e Tablaturas
Black Mountain

Black Mountain

Florian Saucer Attack

Cifras Cancelar Versão de Impressão
cifras

Black Mountain - Florian Saucer Attack

fixar na tela  
Exibindo: vídeo-aula ver clipes redimensionar

Tom:

  
GUITAR 

Intro 
e|-------------------------------------|-------------------------------------| 
B|-------------------------------------|-------------------------------------|  
G|7-8-9---9---9---9---9---9---9---9----|7-8-9---9---9---9---9---9---9---9----| x2 
D|7-8-9---9---9---9---9---9---9---9----|7-8-9---9---9---9---9---9---9---9----| 
A|5-6-7---7---7---7---7---7---7---7----|5-6-7---7---7---7---7---7---7---7----| 
E|-------------------------------------|-------------------------------------| 

Verse 
e|-------------------------------------|-------------------------------------| 
B|-------------------------------------|-------------------------------------| 
G|-------------------------------------|7------------------------------------| 
D|9---------------------------4--4-----|7------------------------------------| 
A|9---------------------------4--4-----|5------------------------------------| 
E|7---------------------------2--2-----|-------------------------------------| 

Intro 
e|-------------------------------------|-------------------------------------| 
B|-------------------------------------|-------------------------------------|  
G|7-8-9---9---9---9---9---9---9---9----|7-8-9---9---9---9---9---9---9---9----| x2 
D|7-8-9---9---9---9---9---9---9---9----|7-8-9---9---9---9---9---9---9---9----| 
A|5-6-7---7---7---7---7---7---7---7----|5-6-7---7---7---7---7---7---7---7----| 
E|-------------------------------------|-------------------------------------| 

Verse 
e|-------------------------------------|-------------------------------------| 
B|-------------------------------------|-------------------------------------| 
G|-------------------------------------|7------------------------------------| 
D|9---------------------------4--4-----|7------------------------------------| 
A|9---------------------------4--4-----|5------------------------------------| 
E|7---------------------------2--2-----|-------------------------------------| 

Intro 
e|-------------------------------------|-------------------------------------| 
B|-------------------------------------|-------------------------------------|  
G|7-8-9---9---9---9---9---9---9---9----|7-8-9---9---9---9---9---9---9---9----| 
D|7-8-9---9---9---9---9---9---9---9----|7-8-9---9---9---9---9---9---9---9----| 
A|5-6-7---7---7---7---7---7---7---7----|5-6-7---7---7---7---7---7---7---7----| 
E|-------------------------------------|-------------------------------------| 

Chorus 
There is some sort of effect on the guitar here but I do not know what it is. 
Repeat the Chorus twice 
e|7-------------------3-------------------3------------------2---------------| 
B|7-------------------3-------------------3------------------2---------------| 
G|7-------------------3-------------------3------------------2---------------| 
D|9-------------------5-------------------5------------------4---------------| 
A|9-------------------5-------------------5------------------4---------------| 
E|7-------------------3-------------------3------------------2---------------| 

e|7-------------------3-------------------5------------------2---------------| 
B|7-------------------3-------------------5------------------2---------------| 
G|7-------------------3-------------------5------------------2---------------| 
D|9-------------------5-------------------7------------------4---------------| 
A|9-------------------5-------------------7------------------4---------------| 
E|7-------------------3-------------------5------------------2---------------| 

Post-Chorus 
e|-------------------------------------|-------------------------------------| 
B|-------------------------------------|-------------------------------------| 
G|7--7------------7--7----------7------|5---------------------------------5--| 
D|7--7----7--7----7--7----7--7--7--7---|5---------------------------------5--| 
A|5--5----7--7----5--5----7--7--5--7---|3---------------------------------3--| 
E|--------5--5------------5--5-----5---|-------------------------------------| 

Intro No Synth 
e|-------------------------------------|-------------------------------------| 
B|-------------------------------------|-------------------------------------|  
G|7-8-9---9---9---9---9---9---9---9----|7-8-9---9---9---9---9---9---9---9----| x2 
D|7-8-9---9---9---9---9---9---9---9----|7-8-9---9---9---9---9---9---9---9----| 
A|5-6-7---7---7---7---7---7---7---7----|5-6-7---7---7---7---7---7---7---7----| 
E|-------------------------------------|-------------------------------------| 

Verse 
e|-------------------------------------|-------------------------------------| 
B|-------------------------------------|-------------------------------------| 
G|-------------------------------------|7------------------------------------| 
D|9----------------------------4-4-----|7------------------------------------| 
A|9----------------------------4-4-----|5------------------------------------| 
E|7----------------------------2-2-----|-------------------------------------| 

Intro No Synth 
e|-------------------------------------|-------------------------------------| 
B|-------------------------------------|-------------------------------------|  
G|7-8-9---9---9---9---9---9---9---9----|7-8-9---9---9---9---9---9---9---9----| x2 
D|7-8-9---9---9---9---9---9---9---9----|7-8-9---9---9---9---9---9---9---9----| 
A|5-6-7---7---7---7---7---7---7---7----|5-6-7---7---7---7---7---7---7---7----| 
E|-------------------------------------|-------------------------------------| 

Verse 
e|-------------------------------------|-------------------------------------| 
B|-------------------------------------|-------------------------------------| 
G|-------------------------------------|7------------------------------------| 
D|9----------------------------4-4-----|7------------------------------------| 
A|9----------------------------4-4-----|5------------------------------------| 
E|7----------------------------2-2-----|-------------------------------------| 

Intro 
e|-------------------------------------|-------------------------------------| 
B|-------------------------------------|-------------------------------------|  
G|7-8-9---9---9---9---9---9---9---9----|7-8-9---9---9---9---9---9---9---9----| 
D|7-8-9---9---9---9---9---9---9---9----|7-8-9---9---9---9---9---9---9---9----| 
A|5-6-7---7---7---7---7---7---7---7----|5-6-7---7---7---7---7---7---7---7----| 
E|-------------------------------------|-------------------------------------| 

Chorus 
There is some sort of effect on here but I do not know what it is. 
Repeat the Chorus twice 
e|7-------------------3-------------------3------------------2---------------| 
B|7-------------------3-------------------3------------------2---------------| 
G|7-------------------3-------------------3------------------2---------------| 
D|9-------------------5-------------------5------------------4---------------| 
A|9-------------------5-------------------5------------------4---------------| 
E|7-------------------3-------------------3------------------2---------------| 

e|7-------------------3-------------------5------------------2---------------| 
B|7-------------------3-------------------5------------------2---------------| 
G|7-------------------3-------------------5------------------2---------------| 
D|9-------------------5-------------------7------------------4---------------| 
A|9-------------------5-------------------7------------------4---------------| 
E|7-------------------3-------------------5------------------2---------------| 

Bridge 
Bridge is same as Chorus, again repeated twice 
e|7-------------------3-------------------3------------------2---------------| 
B|7-------------------3-------------------3------------------2---------------| 
G|7-------------------3-------------------3------------------2---------------| 
D|9-------------------5-------------------5------------------4---------------| 
A|9-------------------5-------------------5------------------4---------------| 
E|7-------------------3-------------------3------------------2---------------| 

e|7-------------------3-------------------5------------------2---------------| 
B|7-------------------3-------------------5------------------2---------------| 
G|7-------------------3-------------------5------------------2---------------| 
D|9-------------------5-------------------7------------------4---------------| 
A|9-------------------5-------------------7------------------4---------------| 
E|7-------------------3-------------------5------------------2---------------| 

Post-Chorus 
e|-------------------------------------|-------------------------------------| 
B|-------------------------------------|-------------------------------------| 
G|7--7------------7--7----------7------|5------------------------------------| 
D|7--7----7--7----7--7----7--7--7--7---|5------------------------------------| 
A|5--5----7--7----5--5----7--7--5--7---|3------------------------------------| 
E|--------5--5------------5--5-----5---|-------------------------------------| 

e|-------------------------------------| 
B|-------------------------------------| 
G|5-6-7---7---7---7---7---7---7---7----| 
D|5-6-7---7---7---7---7---7---7---7----| 
A|3-4-5---5---5---5---5---5---5---5----| 
E|-------------------------------------| 

Intro 
e|-------------------------------------|-------------------------------------| 
B|-------------------------------------|-------------------------------------|  
G|7-8-9---9---9---9---9---9---9---9----|7-8-9---9---9---9---9---9---9---9----| x4 
D|7-8-9---9---9---9---9---9---9---9----|7-8-9---9---9---9---9---9---9---9----| 
A|5-6-7---7---7---7---7---7---7---7----|5-6-7---7---7---7---7---7---7---7----| 
E|-------------------------------------|-------------------------------------| 

Outro 
e|-------------------------------------|-------------------------------------| 
B|-------------------------------------|-------------------------------------| 
G|-------------------------------------|7------------------------------------| 
D|9----------------------------4-4-----|7------------------------------------| 
A|9----------------------------4-4-----|5------------------------------------| 
E|7----------------------------2-2-----|-------------------------------------| 

e|-------------------------------------| 
B|-------------------------------------| 
G|7-8-9\\\\----------------------------| 
D|7-8-9\\\\----------------------------| 
A|5-6-7\\\\----------------------------| 
E|-------------------------------------| 



SYNTH 
Main Riff 
Plays during the Intro part 
e|----10-10------12--------------------|----10-10------12--------------------| 
B|12---------12------10--13-12---------|12---------12------10--13-12--10--12-| 
G|-------------------------------------|-------------------------------------| 
D|-------------------------------------|-------------------------------------| 
A|-------------------------------------|-------------------------------------| 
E|-------------------------------------|-------------------------------------| 

There also seems to be a quieter synth that just plays the E note over the intro 
(even during what I titled Intro No Synth) 

A synth also does what I think is called a sweep during the Chorus  
but I don't know how to play that on a guitar. The sweeps continue into the bridge. 

Bridge 
Repeat twice 
e|---------------------------------------------------------------------------| 
B|------12--------------------------------------------------10---------------| 
G|11------------------9----11-------------9-----11-----9--------------12-----| 
D|---------------------------------------------------------------------------| 
A|---------------------------------------------------------------------------| 
E|---------------------------------------------------------------------------| 

e|---------------------------------------------------------------------------| 
B|------12-------------------------------------------------------------------| 
G|11------------------9----11-------------9-----11-----9---------------------| 
D|----------------------------------------------------------11---------------| 
A|--------------------------------------------------------------------12-----| 
E|---------------------------------------------------------------------------| 

************************************ 
| \   slide down 
************************************ 
  

top 5 | black mountain
top rock alternativo
Outras músicas do artista letras do(a) Black Mountain
Top cifras »Top artistas »
Petaxxon Comunicação Online
Cifras.com.br - Melhor e mais completo site de cifras e tablaturas do Brasil
Mais de 1 milhão de acordes de músicas cadastradas desde 2003
As informações contidas no nosso site são colaborações de seus usuários e podem conter erros, sendo assim, não nos responsabilizamos sobre nenhuma destas.
close
menos
mais
close
Cor dos acordes:

Cor da letra:

 

save
close
close
 
redimensionar