Cifras e Tablaturas
Blackbear

Blackbear

Dirty Laundry

Cifras Cancelar Versão de Impressão
cifras

Blackbear - Dirty Laundry

fixar na tela  
Exibindo: vídeo-aula ver clipes redimensionar

Tom:

  
 
capo 5th Fret 
e|--0--x--0---------------------------0-----x---0---x---2---x----2-----------|  x3 
B|--0--x--0---------------------------1h3---x---3---x---0---x----0-----------| 
G|--0--x--0------------0--------------0-----x---0---x---4---x----4--2/4\2-0--| 
D|--2--x--2------2h4-----4--2h4p2p0---2-----x---2---x---4---x----4-----------| 
A|--2--x--2---------------------------3-----x---3---x---5---x----5-----------| 
E|--0--x--0---------------------------0-----x---0---x---0---x----0-----------| 

e|--0--x--0-----------0----------------2-------------------------------------| 
B|--0--x--0-----------3----------------0-------------------------------------| 
G|--0--x--0-----------0----------------4-------------------0-----------------| 
D|--2--x--2-----------2----------------4-----------------0---h2---0----------| 
A|--2--x--2-----------3----------------5---------------2--------2------------| 
E|--0--x--0-----------0----------------0-------------------------------------| 

e|---------------------------------------------------------------------------| 
B|--------0-------0---------------------------1--------1---------0-----------| 
G|--------0-------0---------------------------0--------0---------2-------0---| 
D|--------2-------2----2h4--4--2h4p2p0--------2--------2---------4------0-h2-| 
A|--------2-------2---------------------3--3-----3---------2--2-----2--2-----| 
E|--0--0-----0---------------------------------------------------------------| 

e|--0---------------0----------------2---------------------------------------| 
B|--0---------------3----------------0---------------------------------------| 
G|--0---------------0----------------4-------------------0-------------------| 
D|--2---------------2----------------4-----------------0---2---0-------------| 
A|--2---------------3----------------5---------------2-------2---------------| 
E|--0---------------0----------------0---------------------------------------| 

e|---------------------------------------------------------------------------| 
B|-------0-------0-------------------------1--------1---------0--------------| 
G|-------0-------0-------------------------0--------0---------2-------0------| 
D|-------2-------2---2h4--4--2h4p2p0-------2--------2---------4-----0--h2---0| 
A|-------2-------2--------------------3--3-----3---------2--2---2--2------2--| 
E|-0--0-----0----------------------------------------------------------------| 

e|---------------------------------------------------------------------------| 
B|--------0-------0---------------------------1--------1---------0-----------| 
G|--------0-------0---------------------------0--------0---------2-----------| 
D|--------2-------2----2h4--4--2h4p2p0--------2--------2---------4-----------| 
A|--------2-------2---------------------3--3-----3---------2--2------2-------| 
E|--0--0-----0---------------------------------------------------------------| 

Chords used for the rest of the song: 
e|----0---------------0---------------2--------------------------------------|  x3 
B|----0---------------3---------------0--------------------------------------| 
G|----0---------------0---------------4--------------------------------------| 
D|----2---------------2---------------4--------------------------------------| 
A|----2---------------3---------------5--------------------------------------| 
E|----0---------------0---------------0--------------------------------------| 

e|----0-----------0------------0----------0-0---------0-----------2----------|   
B|----0-----------0------------0----------0-0---------3-----------0----------| 
G|----0-----------7------------0----------0-0---------0-----------4----------| 
D|----9-----------0------------7----------7\2---------2-----------4----------| 
A|----9-----------9------------9----------9\2---------3-----------5----------| 
E|----0-----------0------------0----------0-0---------0-----------0----------| 

e|----0---------------0---------------2--------------------------------------|  x4 
B|----0---------------3---------------0--------------------------------------| 
G|----0---------------0---------------4--------------------------------------| 
D|----2---------------2---------------4--------------------------------------| 
A|----2---------------3---------------5--------------------------------------| 
E|----0---------------0---------------0--------------------------------------| 

e|----0----------| 
B|----0----------| 
G|----0----------| 
D|----2----------| 
A|----2----------| 
E|----0----------| 

************************************ 

| x   Dead note 
| g   Grace note 
| (n) Ghost note 
| h   Hammer-on 
| p   Pull-off 
| r   Release 
| >   Accented note 
| t   Tapping 
| b   Bend 
| br  Bend release 
| pb  Pre-bend 
| pbr Pre-bend release 
| /   Slide up 
| \   Slide down 
| ~   Vibrato 
| s   Slap 
| P   Pop 
| PM  Palm mute 
| TR  Trill 
| N   Tremolo 

************************************ 
  

top 5 | blackbear
top rap/hip hop
Outras músicas do artista letras do(a) Blackbear
2.
Idfc
3.
Nye
4.
4u
Top cifras »Top artistas »
Petaxxon Comunicação Online
Cifras.com.br - Melhor e mais completo site de cifras e tablaturas do Brasil
Mais de 1 milhão de acordes de músicas cadastradas desde 2003
As informações contidas no nosso site são colaborações de seus usuários e podem conter erros, sendo assim, não nos responsabilizamos sobre nenhuma destas.
close
menos
mais
close
Cor dos acordes:

Cor da letra:

 

save
close
close
 
redimensionar