Cifras e Tablaturas
Blind Guardian

Blind Guardian

The Wizard

Ano: 1996
Album : Forgotten Tales

Cifras Cancelar Versão de Impressão

Blind Guardian - The Wizard

Tom: B

  			
Tuning: B F# B E G# C# 

Intro 
 
C# ||-------2--------2--------|--3h-2--------0h-2--------| 
G# ||----------3--------3-----|--------3-----------3-----| 
E  ||-------------2--------2--|-----------2-----------2--| 
B  ||-------------------------|--------------------------| 
F# ||-------------------------|--------------------------| 
B  ||--0----------------------|--------------------------| 
 
 
-----------0-----------0--|------------------2----|-------2--------2-------| 
--------3-----------3-----|--3---------------3----|----------3--------3----| 
-----0-----------0--------|-----0------------2----|-------------2--------2-| 
--------------------------|------------------0----|------------------------| 
--3-----------2-----------|-----------------------|------------------------| 
--------------------------|--------3r---0---------|--0---------------------| 
 
 
--3h-2--------0h-2-------|-----------0-----------0--|------------------2---| 
--------3-----------3----|--------3-----------3-----|------------------3---| 
-----------2-------------|-----0-----------0--------|------------------2---| 
-------------------------|--------------------------|------------------0---| 
-------------------------|--3-----------2-----------|----------------------| 
-------------------------|--------------------------|--3--0--3r---0--------| 
 

Fim da Intro 

Acordes com formato de D e C e poucas variações 

 
-------2----2--2----2--|--3----2----0--2--0----|--0--0--0--0--0--0--0--0--| 
-------3----3--3----3--|--3----3----3--3--3----|--3--3--3--3--3--3--3--3--| 
-------2----2--2----2--|--2----2----2--2--2----|--0--0--0--0--0--0--0--0--| 
-------0----0--0----0--|--0----0----0--0--0----|--2--2--2--2--0--0--0--0--| 
-----------------------|-----------------------|--3--3--3--3--2--2--2--2--| 
--0--------------------|-----------------------|--------------------------| 
 
 
--2--2------2----2--2--|-------2----2--2----2--|--3----2----0--2--0----| 
--3--3------3----3--3--|-------3----3--3----3--|--3----3----3--3--3----| 
--2--2------2----2--2--|-------2----2--2----2--|--2----2----2--2--2----| 
--0--0------0----0--0--|-------0----0--0----0--|--0----0----0--0--0----| 
-----------------------|-----------------------|-----------------------| 
-----------------------|--0--------------------|-----------------------| 
 
                                  He was the wizard of a thousand kings 


 
--0--0--0--0--0--0--0--0--|--2--2------2----2--2--|-------2----2--2----2--| 
--3--3--3--3--3--3--3--3--|--3--3------3----3--3--|-------3----3--3----3--| 
--0--0--0--0--0--0--0--0--|--2--2------2----2--2--|-------2----2--2----2--| 
--2--2--2--2--0--0--0--0--|--0--0------0----0--0--|-------0----0--0----0--| 
--3--3--3--3--2--2--2--2--|-----------------------|-----------------------| 
--------------------------|-----------------------|--0--------------------| 
 
                                                        And I chanced to meet him  


 
--3----2----0--2--0----|--0--0--0--0--0--0--0--0--|--2--2------2----2--2--| 
--3----3----3--3--3----|--3--3--3--3--3--3--3--3--|--3--3------3----3--3--| 
--2----2----2--2--2----|--0--0--0--0--0--0--0--0--|--2--2------2----2--2--| 
--0----0----0--0--0----|--2--2--2--2--0--0--0--0--|--0--0------0----0--0--| 
-----------------------|--3--3--3--3--2--2--2--2--|-----------------------| 
-----------------------|--------------------------|-----------------------| 
 
              one night wandering............. 


 
--0--------0----0--0--|--0--------0----0--0--|--0--------0----0--0--| 
--3--------3----3--3--|--3--------3----3--3--|--3--------3----3--3--| 
--0--------0----0--0--|--0--------0----0--0--|--0--------0----0--0--| 
--2--------2----2--2--|--0--------0----0--0--|--2--------2----2--2--| 
--3--------3----3--3--|--2--------2----2--2--|--3--------3----3--3--| 
----------------------|----------------------|----------------------| 
 
 He told me tales and he drank my wine 


 
--0--------0----0--0--|-------2----2--2----2--|--3----2----0--2--0----| 
--3--------3----3--3--|-------3----3--3----3--|--3----3----3--3--3----| 
--0--------0----0--0--|-------2----2--2----2--|--2----2----2--2--2----| 
--0-------------------|-------0----0--0----0--|--0----0----0--0--0----| 
--2-------------------|-----------------------|-----------------------| 
----------------------|--0--------------------|-----------------------| 
 
                              Me and my magic man kinda feeling fine 


 
--0--0--0--0--0--0--0--0--|--2--2-------2--------|------------------| 
--3--3--3--3--3--3--3--3--|--3--3-------3--------|------------------| 
--0--0--0--0--0--0--0--0--|--2--2-------2--------|------------------| 
--2--2--2--2--0--0--0--0--|--0--0-------0--------|------------------| 
--3--3--3--3--2--2--2--2--|----------------------|------------------| 
--------------------------|--------0-------------|------------------| 
 
 
------------------||---2----2----2--2----2--|--3----2----0--2--0----| 
------------------||---3----3----3--3----3--|--3----3----3--3--3----| 
------------------||*--2----2----2--2----2--|--2----2----2--2--2----| 
------------------||*--0----0----0--0----0--|--0----0----0--0--0----| 
------------------||------------------------|-----------------------| 
------------------||---0--------------------|-----------------------| 
 
                       He had a cloak of gold and eyes of fire.. 
                       And as he spoke I felt a deep desire.. 


 
--0--0--0--0--0--0--0--0--|--2--2-------2----2--2---||--0--------0----0--0-| 
--3--3--3--3--3--3--3--3--|--3--3-------3----3--3---||--3--------3----3--3-| 
--0--0--0--0--0--0--0--0--|--2--2-------2----2--2--*||--0--------0----0--0-| 
--2--2--2--2--0--0--0--0--|--0--0-------0----0--0--*||--2--------2----2--2-| 
--3--3--3--3--2--2--2--2--|-------------------------||--3--------3----3--3-| 
--------------------------|--------0----------------||---------------------| 
 
                                                        To free the world... 


 
--0--------0----0--0--|--0--------0----0--0--|--0--------0----0--0--| 
--3--------3----3--3--|--3--------3----3--3--|--3--------3----3--3--| 
--0--------0----0--0--|--0--------0----0--0--|--0--------0----0--0--| 
--0--------0----0--0--|--2--------2----2--2--|--0-------------------| 
--2--------2----2--2--|--3--------3----3--3--|--2-------------------| 
----------------------|----------------------|----------------------| 
 
..of its fear and pain 

 
|---2----2----2--2----2--|--3----2----0--2--0----|--0--0--0--0--0--0--0--0-| 
|---3----3----3--3----3--|--3----3----3--3--3----|--3--3--3--3--3--3--3--3-| 
|*--2----2----2--2----2--|--2----2----2--2--2----|--0--0--0--0--0--0--0--0-| 
|*--0----0----0--0----0--|--0----0----0--0--0----|--2--2--2--2--0--0--0--0-| 
|------------------------|-----------------------|--3--3--3--3--2--2--2--2-| 
|---0--------------------|-----------------------|-------------------------| 
 
    And help the people to feel free again.. 


 
                               G/A   A    A   A          G/A  A    A 
--2--2-------2----2--2---||--------------------------|---------------------| 
--3--3-------3----3--3---||---8-/-10----10--10-------|--8-/-10----10--10---| 
--2--2-------2----2--2--*||*--7-/-9-----9---9--------|--7-/-9-----9---9----| 
--0--0-------0----0--0--*||*--5-/-7-----7---7--------|--5-/-7-----7---7----| 
-------------------------||--------------------------|---------------------| 
--------0----------------||--------------------------|---------------------| 
 
                              Why don't we listen to... the voices in our hearts 
                              Cause then I know we'll find... we're not so far apart 
                              Everybody's got to be happy...everyone should sing 
                              For we know the joy of life... the peace that love can bring 


 
   G/A  A     A   A           G    G  G    G  G       G    G  G    G  G 
-------------------------|--7----7--7----7--7----|--7----7--7----7--7-----|| 
--8-/-10----10--10-------|--8----8--8----8--8----|--8----8--8----8--8-----|| 
--7-/-9-----9---9--------|--7----7--7----7--7----|--7----7--7----7--7----*|| 
--5-/-7-----7---7--------|--5----5--5----5--5----|--5----5--5----5--5----*|| 
-------------------------|-----------------------|------------------------|| 
-------------------------|-----------------------|------------------------|| 
 
 
--2----2----2--2----2--|--3----2----0--2--0----|--0--0--0--0--0--0--0--0--| 
--3----3----3--3----3--|--3----3----3--3--3----|--3--3--3--3--3--3--3--3--| 
--2----2----2--2----2--|--2----2----2--2--2----|--0--0--0--0--0--0--0--0--| 
--0----0----0--0----0--|--0----0----0--0--0----|--2--2--2--2--0--0--0--0--| 
-----------------------|-----------------------|--3--3--3--3--2--2--2--2--| 
--0--------------------|-----------------------|--------------------------| 
 
  So spoke the Wizard in his mountain home.. 


 
--2--2-------2----2--2--|--2----2----2--2----2--|--3----2----0--2--0----| 
--3--3-------3----3--3--|--3----3----3--3----3--|--3----3----3--3--3----| 
--2--2-------2----2--2--|--2----2----2--2----2--|--2----2----2--2--2----| 
--0--0-------0----0--0--|--0----0----0--0----0--|--0----0----0--0--0----| 
------------------------|-----------------------|-----------------------| 
--------0---------------|--0--------------------|-----------------------| 
 
                           The vision of his wisdom means we'll never be alone.. 


 
--0--0--0--0--0--0--0--0--|--2--2-------2----2--2--|--0--------0----0--0--| 
--3--3--3--3--3--3--3--3--|--3--3-------3----3--3--|--3--------3----3--3--| 
--0--0--0--0--0--0--0--0--|--2--2-------2----2--2--|--0--------0----0--0--| 
--2--2--2--2--0--0--0--0--|--0--0-------0----0--0--|--2--------2----2--2--| 
--3--3--3--3--2--2--2--2--|------------------------|--3--------3----3--3--| 
--------------------------|--------0---------------|----------------------| 
 
                                                      And now I will dream of my magic night.. 


 
--0--------0----0--0--|--0--------0----0--0--|--0--------0----0--0--| 
--3--------3----3--3--|--3--------3----3--3--|--3--------3----3--3--| 
--0--------0----0--0--|--0--------0----0--0--|--0--------0----0--0--| 
--0--------0----0--0--|--2--------2----2--2--|--0-------------------| 
--2--------2----2--2--|--3--------3----3--3--|--2-------------------| 
----------------------|----------------------|----------------------| 
 
 
--2----2----2--2----2--|--3----2----0--2--0----|--0--0--0--0--0--0--0--0--| 
--3----3----3--3----3--|--3----3----3--3--3----|--3--3--3--3--3--3--3--3--| 
--2----2----2--2----2--|--2----2----2--2--2----|--0--0--0--0--0--0--0--0--| 
--0----0----0--0----0--|--0----0----0--0--0----|--2--2--2--2--0--0--0--0--| 
-----------------------|-----------------------|--3--3--3--3--2--2--2--2--| 
--0--------------------|-----------------------|--------------------------| 
 
 And the million silver stars that guide me with their light. 

 
--2--2-------2----2--2--|--2----2----2--2----2--|--3----2----0--2--0----| 
--3--3-------3----3--3--|--3----3----3--3----3--|--3----3----3--3--3----| 
--2--2-------2----2--2--|--2----2----2--2----2--|--2----2----2--2--2----| 
--0--0-------0----0--0--|--0----0----0--0----0--|--0----0----0--0--0----| 
------------------------|-----------------------|-----------------------| 
--------0---------------|--0--------------------|-----------------------| 
 
 
--0--0--0--0--0--0--0--0--|--2--2-------2----2--2--|--2----2----2--2----2--| 
--3--3--3--3--3--3--3--3--|--3--3-------3----3--3--|--3----3----3--3----3--| 
--0--0--0--0--0--0--0--0--|--2--2-------2----2--2--|--2----2----2--2----2--| 
--2--2--2--2--0--0--0--0--|--0--0-------0----0--0--|--0----0----0--0----0--| 
--3--3--3--3--2--2--2--2--|------------------------|-----------------------| 
--------------------------|--------0---------------|--0--------------------| 
 
 
--3----2----0--2--0----|--0--0--0--0--0--0--0--0--|--2--2-------2----2--2--| 
--3----3----3--3--3----|--3--3--3--3--3--3--3--3--|--3--3-------3----3--3--| 
--2----2----2--2--2----|--0--0--0--0--0--0--0--0--|--2--2-------2----2--2--| 
--0----0----0--0--0----|--2--2--2--2--0--0--0--0--|--0--0-------0----0--0--| 
-----------------------|--3--3--3--3--2--2--2--2--|------------------------| 
-----------------------|--------------------------|--------0---------------| 
 
 
--2----2----2--2----2--|--3----2----0--2--0----|--0--0--0--0--0--0--0--0--| 
--3----3----3--3----3--|--3----3----3--3--3----|--3--3--3--3--3--3--3--3--| 
--2----2----2--2----2--|--2----2----2--2--2----|--0--0--0--0--0--0--0--0--| 
--0----0----0--0----0--|--0----0----0--0--0----|--2--2--2--2--0--0--0--0--| 
-----------------------|-----------------------|--3--3--3--3--2--2--2--2--| 
--0--------------------|-----------------------|--------------------------| 
 
 
--2--2-------2----2--2--|--2----2----2--2----2--|--3----2----0--2--0----| 
--3--3-------3----3--3--|--3----3----3--3----3--|--3----3----3--3--3----| 
--2--2-------2----2--2--|--2----2----2--2----2--|--2----2----2--2--2----| 
--0--0-------0----0--0--|--0----0----0--0----0--|--0----0----0--0--0----| 
------------------------|-----------------------|-----------------------| 
--------0---------------|--0--------------------|-----------------------| 
 
 
--0--0--0--0--0--0--0--0--|--2--2-------2----2--2--|--2----2----2--2----2--| 
--3--3--3--3--3--3--3--3--|--3--3-------3----3--3--|--3----3----3--3----3--| 
--0--0--0--0--0--0--0--0--|--2--2-------2----2--2--|--2----2----2--2----2--| 
--2--2--2--2--0--0--0--0--|--0--0-------0----0--0--|--0----0----0--0----0--| 
--3--3--3--3--2--2--2--2--|------------------------|-----------------------| 
--------------------------|--------0---------------|--0--------------------| 
 
 
--3----2----0--2--0----|--0--0--0--0--0--0--0--0--|--2--2-------2----2--2-|| 
--3----3----3--3--3----|--3--3--3--3--3--3--3--3--|--3--3-------3----3--3-|| 
--2----2----2--2--2----|--0--0--0--0--0--0--0--0--|--2--2-------2----2--2-|| 
--0----0----0--0--0----|--2--2--2--2--0--0--0--0--|--0--0-------0----0--0-|| 
-----------------------|--3--3--3--3--2--2--2--2--|-----------------------|| 
-----------------------|--------------------------|--------0--------------||  
    	
fixar
fixar inscrever-se

enviado porenviado por: renejunior
cifra enviadaCorrigida por: sem correções
logo top cifrasComente
ico música do artistaMúsicas deste artista
ico curtiuCurtiu?
ico destaqueDestaque
Petaxxon Comunicação Online

Cifras.com.br - Melhor e mais completo site de cifras e tablaturas do Brasil Mais de 1 milhão de acordes de músicas cadastradas desde 2003
As informações contidas no nosso site são colaborações de seus usuários e podem conter erros, sendo assim, não nos responsabilizamos sobre nenhuma destas.

close
menos
mais
close
Cor dos acordes:

Cor da letra:

close
Alinhar acordes a direita Alinhar acordes a esquerda Alinhar acordes em baixo Alinhar acordes no topo
close
  Mostrar todos os acordes Esconder acordes muito fáceis Esconder acordes fáceis Esconder acordes intermediários
redimensionar
glossário