Cifras e Tablaturas
Blue Stahli

Blue Stahli

Enemy

Cifras Cancelar Versão de Impressão
cifras

Blue Stahli - Enemy

fixar na tela  
Exibindo: vídeo-aula ver clipes redimensionar

Tom:

A#

ver outros tons
  
Intro: (there are two guitars here) 

Guitar I: 
C |---------------|----------------|---------------|----------------|---------------|----------------| 
G |---------------|----------------|---------------|----------------|---------------|----------------| 
D#|---------------|----------------|---------------|----------------|---------------|----------------| 
A#|-0-0----0-0----|----------------|-0-0----0-0----|----------------|-0-0----0-0----|----------------| 
F |-0-0----0-0----|----------------|-0-0----0-0----|----------------|-0-0----0-0----|----------------| 
A#|-0-0----0-0----|----------------|-0-0----0-0----|----------------|-0-0----0-0----|----------------| 
                                                                    (enter Guitar II) 

---------------|----------------|---------------|----------------|---------------|----------------| 
---------------|----------------|---------------|----------------|---------------|----------------| 
---------------|----------------|---------------|----------------|---------------|----------------| 
-0-0----0-0----|----------------|-0-0----0-0----|----------------|-0-0----0-0----|----------------| 
-0-0----0-0----|----------------|-0-0----0-0----|----------------|-0-0----0-0----|----------------| 
-0-0----0-0----|----------------|-0-0----0-0----|----------------|-0-0----0-0----|----------------| 

Guitar II: (enters on Guitar I's fifth measure) 
C |---------------------------------|---------------------------------|---------------------------------| 
G |---------------------------------|---------------------------------|---------------------------------| 
D#|---------------------------------|---------------------------------|---------------------------------| 
A#|---------0-----------------------|---------0-----------------------|---------0-----------------------| 
F |---------------------------------|---------------------------------|---------------------------------| 
A#|-0-3-5-3---5-3-0-3-0-3-5b--0-6b--|-0-3-5-3---5-3-0-3-0-3-5b--0-6b--|-0-3-5-3---5-3-0-3-0-3-5b--0-6b--| 
    . . . . . . . . . . . .   . .     . . . . . . . . . . . .   . .     . . . . . . . . . . . .   . . 

---------------------------------|---------------------------------|---------------------------------| 
---------------------------------|---------------------------------|---------------------------------| 
---------------------------------|---------------------------------|---------------------------------| 
---------0-----------------------|---------0-----------------------|---------0-----------------------| 
---------------------------------|---------------------------------|---------------------------------| 
-0-3-5-3---5-3-0-3-0-3-5b--0-6b--|-0-3-5-3---5-3-0-3-0-3-5b--0-6b--|-0-3-5-3---5-3-0-3-0-3-5b--0-6b--| 
    . . . . . . . . . . . .   . .    

---------------------------------|---------------------------------| 
---------------------------------|---------------------------------| 
---------------------------------|---------------------------------| 
---------0-----------------------|---------0-----------------------| 
---------------------------------|---------------------------------| 
-0-3-5-3---5-3-0-3-0-3-5b--0-6b--|-0-3-5-3---5-3-0-3-0-3-5b--0-6b--| 

If you don't feel like counting, basically Guitar II plays the same riff eight times, and the first four 
times the riff is palm muted. 


Main riff: 

C |---------------------------------|---------------------------------|---------------------------------| 
G |---------------------------------|---------------------------------|---------------------------------| 
D#|---------------------------------|---------------------------------|---------------------------------| 
A#|---------0-----------------------|---------0-----------------------|---------0-----------------------| 
F |---------------------------------|---------------------------------|---------------------------------| 
A#|-0-3-5-3---5-3-0-3-0-3-5b--0-6b--|-0-3-5-3---5-3-0-3-0-3--10b--9b--|-0-3-5-3---5-3-0-3-0-3-5b--0-6b--| 

----------------------| 
----------------------| 
----------------------| 
-0-0----0-0----0-0----| 
-0-0----0-0----0-0----| 
-0-0----0-0----0-0----| 


Verse I Riff: (comes in after bass plays alone) 

C |----------------------------------|-----------------------------------|------------------------------| 
G |----------------------------------|-----------------------------------|------------------------------| 
D#|----------------------------------|-----------------------------------|------------------------------| 
A#|----------------------------------|-----------------------------------|------------------------------| 
F |----------------------------------|-----------------------------------|------------------------------| 
A#|-5/10-10b-10b-10b-10b-10b-10b-10b-|-0---0-0--0-10\--0-0---0-10--10-12-|-5---5-5--5-8--5-5---5-7--7-8-| 
       (slowly bend higher and higher) .   . .  .      . .   .             .   . .  .    . .   . 

-----------------------------------|--------------------------------------| 
-----------------------------------|--------------------------------------| 
-----------------------------------|--------------------------------------| 
-----------------------------------|--------------------------------------| 
-----------------------------------|--------------------------------------| 
-0---0-0--0-10\--0-0---0-10--10-12-|-5---5-5--5-5/11-11-11-11-11-11-11-11-| 
 .   . .  .      . .   .             .   . .  . 


Pre-Chorus (two guitars here also; Guitar II has some weird effects on it that make it sound suppressed) 

Guitar I: 
C |-----------------|-----------------| 
G |-----------------|-----------------| 
D#|-----------------|-----------------| 
A#|-3-3-3-3-3-3-3-3-|-5-5-5-5-8-8-7-7-| 
F |-3-3-3-3-3-3-3-3-|-5-5-5-5-8-8-7-7-| 
A#|-3-3-3-3-3-3-3-3-|-5-5-5-5-8-8-7-7-| 
    . . . . . . . .   . . . . . . . . 

Guitar II: 
C |-------------------------|-------------------------| 
G |-------------------------|-------------------------| 
D#|-10-10-10-10-10-10-10-10-|-12-12-12-12-15-15-14-14-| 
A#|-------------------------|-------------------------| 
F |-------------------------|-------------------------| 
A#|-------------------------|-------------------------| 


Chorus I: (Bret doesn't usually write leads for his Choruses, but this Chorus has a lead guitar, which 
is Guitar II) 

Guitar I: 
C |---------|---------|----------|-------------|---------|---------|----------|--------x-x-x-x-x-x-x-x-| 
G |---------|---------|----------|-------------|---------|---------|----------|--------x-x-x-x-x-x-x-x-| 
D#|---------|---------|----------|-------------|---------|---------|----------|--------x-x-x-x-x-x-x-x-| 
A#|-8-------|-5-------|-12-------|-10----------|-8-------|-5-------|-11-------|-7----------------------| 
F |-8-(x16)-|-5-(x16)-|-12-(x16)-|-10-(x12)----|-8-(x16)-|-5-(x16)-|-11-(x16)-|-7-(x8)-----------------| 
A#|-8-------|-5-------|-12-------|-10----------|-8-------|-5-------|-11-------|-7----------------------| 
                                                                     
NOTE: Bret uses a wah pedal to mess with the 11 power chords, and ONLY the 11 power chords.  

Guitar II: 
C |-------------------------------------------------|-------------------------------------------------| 
G |-------15-------15-------15-------15-------15----|-------13-------13-------13-------13-------13----| 
D#|-14-14----14-14----14-14----14-14----14-14----14-|-14-14----14-14----14-14----14-14----14-14----14-| 
A#|-------------------------------------------------|-------------------------------------------------| 
F |-------------------------------------------------|-------------------------------------------------| 
A#|-------------------------------------------------|-------------------------------------------------| 

-------------------------------------------------|----------------------------------------| 
-------11-------11-------11-------11-------11----|-------15-------15-------17-------17----| 
-14-14----14-14----14-14----14-14----14-14----14-|-14-14----14-14----14-14----14-14-------| 
-------------------------------------------------|----------------------------------------| 
-------------------------------------------------|----------------------------------------| 
-------------------------------------------------|----------------------------------------| 

-------------------------------------------------|-------------------------------------------------| 
-------15-------15-------15-------15-------15----|-------13-------13-------13-------13-------13----| 
-14-14----14-14----14-14----14-14----14-14----14-|-14-14----14-14----14-14----14-14----14-14----14-| 
-------------------------------------------------|-------------------------------------------------| 
-------------------------------------------------|-------------------------------------------------| 
-------------------------------------------------|-------------------------------------------------| 

----------|--------x-x-x-x-x-x-x-x-|             Bret lets all the notes ring together, so be careful! 
----------|--------x-x-x-x-x-x-x-x-|             This means that you can't use too much gain, or else it 
----------|--------x-x-x-x-x-x-x-x-|             won't sound good AT ALL. 
-11-------|-7----------------------|     
-11-(x16)-|-7-(x8)-----------------| 
-11-------|-7----------------------| 

After the Chorus, he plays the Main Riff once, then moves into Verse II. 

Verse II: 

C |-----------------------------------|------------------------------|-----------------------------------| 
G |-----------------------------------|------------------------------|-----------------------------------| 
D#|-----------------------------------|------------------------------|-----------------------------------| 
A#|-----------------------------------|------------------------------|-----------------------------------| 
F |-----------------------------------|------------------------------|-----------------------------------| 
A#|-0---0-0--0-10\--0-0---0-10--10-12-|-5---5-5--5-8--5-5---5-7--7-8-|-0---0-0--0-10\--0-0---0-10--10-12-| 
    .   . .  .      . .   .             .   . .  .    . .   .          .   . .  .      . .   . 

---------------------------------------------|-----------------------------------| 
---------------------------------------------|-----------------------------------| 
---------------------------------------------|-----------------------------------| 
---------------------------------------------|-----------------------------------| 
---------------------------------------------|-----------------------------------| 
-5---5-5--5-5/10-10b-10b-10b-10b-10b-10b-10b-|-0---0-0--0-10\--0-0---0-10--10-12-| 
 .   . .  .    (slowly bend higher and higher) .   . .  .      . .   .              

------------------------------|-----------------------------------|--------------------------------------| 
------------------------------|-----------------------------------|--------------------------------------| 
------------------------------|-----------------------------------|--------------------------------------| 
------------------------------|-----------------------------------|--------------------------------------| 
------------------------------|-----------------------------------|--------------------------------------| 
-5---5-5--5-8--5-5---5-7--7-8-|-0---0-0--0-10\--0-0---0-10--10-12-|-5---5-5--5-5/11-11-11-11-11-11-11-11-| 
 .   . .  .    . .   .          .   . .  .      . .   .             .   . .  . 


Chorus II: (basically the same as Chorus I, but mainly the ending is altered a little bit) 

Guitar I: 
C |---------|---------|----------|----------x-x-x-x-|---------|---------|----------|------------------------| 
G |---------|---------|----------|----------x-x-x-x-|---------|---------|----------|------------------------| 
D#|---------|---------|----------|----------x-x-x-x-|---------|---------|----------|------------------------| 
A#|-8-------|-5-------|-12-------|-10---------------|-8-------|-5-------|-11-------|-7----------------------| 
F |-8-(x16)-|-5-(x16)-|-12-(x16)-|-10-(x12)---------|-8-(x16)-|-5-(x16)-|-11-(x16)-|-7-(x8)-----------------| 
A#|-8-------|-5-------|-12-------|-10---------------|-8-------|-5-------|-11-------|-7----------------------| 
                                                                     
Again, Bret uses wah on the 11 power chords and ONLY the 11 power chords. 

Guitar II: 
C |-------------------------------------------------|-------------------------------------------------| 
G |-------15-------15-------15-------15-------15----|-------13-------13-------13-------13-------13----| 
D#|-14-14----14-14----14-14----14-14----14-14----14-|-14-14----14-14----14-14----14-14----14-14----14-| 
A#|-------------------------------------------------|-------------------------------------------------| 
F |-------------------------------------------------|-------------------------------------------------| 
A#|-------------------------------------------------|-------------------------------------------------| 

-------------------------------------------------|----------------------------------------| 
-------11-------11-------11-------11-------11----|-------15-------15-------17-------17----| 
-14-14----14-14----14-14----14-14----14-14----14-|-14-14----14-14----14-14----14-14-------| 
-------------------------------------------------|----------------------------------------| 
-------------------------------------------------|----------------------------------------| 
-------------------------------------------------|----------------------------------------| 

-------------------------------------------------|-------------------------------------------------| 
-------15-------15-------15-------15-------15----|-------13-------13-------13-------13-------13----| 
-14-14----14-14----14-14----14-14----14-14----14-|-14-14----14-14----14-14----14-14----14-14----14-| 
-------------------------------------------------|-------------------------------------------------| 
-------------------------------------------------|-------------------------------------------------| 
-------------------------------------------------|-------------------------------------------------| 

----------|----------|             
-14-------|-10-------|              
--x-(x16)-|--x-(x16)-|             
-11-------|--7-------|     
----------|----------| 
----------|----------| 


For the Bridge, I've divided it up into two parts. Part I contains the rapid notes and Part II is just the open 
power chords. 


Part I: (again, there are two guitars) 

Guitar I: 
C |-------------------------------------------------|-------------------------------------------------| 
G |-------------------------------------------------|-------------------------------------------------| 
D#|-------------------------------------------------|-------------------------------------------------| 
A#|-------------------------------------------------|-------------------------------------------------| 
F |-5-5-5-5-----------------5-5-5-5-----------------|-5-5-5-5-----------------5-5-5-5-----------------| 
A#|---------8-8-8-8-7-7-7-7---------8-8-8-8-5-5-5-5-|---------8-8-8-8-7-7-7-7---------8-8-8-8-5-5-5-5-| 

-------------------------------------------------|--------------------------------------| 
-------------------------------------------------|--------------------------------------| 
-------------------------------------------------|--------------------------------------| 
-------------------------------------------------|-------------------------7------------| 
-5-5-5-5-----------------5-5-5-5-----------------|-5-5-5-5-----------------7----/12brbr-| 
---------8-8-8-8-7-7-7-7---------8-8-8-8---------|---------8-8-8-8-5-5-5-5-7------------| 
                                                                     (rapid bend-releases on the last note) 

Guitar II:  

C |-------------------------------------------------|-------------------------------------------------| 
G |-------------------------------------------------|-------------------------------------------------| 
D#|-------------------------------------------------|-------------------------------------------------| 
A#|-------------------------------------------------|-------------------------------------------------| 
F |-5-5-5-5-----------------5-5-5-5-----------------|-5-5-5-5-----------------5-5-5-5-----------------| 
A#|---------8-8-8-8-7-7-7-7---------8-8-8-8-5-5-5-5-|---------8-8-8-8-7-7-7-7---------8-8-8-8-5-5-5-5-| 

-------------------------------------------------|---------------------------------------------------| 
-------------------------------------------------|---------------------------------------------------| 
-------------------------------------------------|-14-14-14-14-------------------------------/14brbr-| 
-------------------------------------------------|-------------15-15-15-15-12-12-12-12-11------------| 
-5-5-5-5-----------------5-5-5-5-----------------|---------------------------------------------------| 
---------8-8-8-8-7-7-7-7---------8-8-8-8---------|---------------------------------------------------| 
                                                                     (rapid bend-releases on the last note) 


Part II:                                
C |----------------------------|----------------------------|----------------------------| 
G |----------------------------|----------------------------|----------------------------| 
D#|----------------------------|----------------------------|----------------------------| 
A#|-0-0----0-0------0-0----0-0-|-0-0----0-0-----------------|-0-0----0-0------0-0----0-0-| 
F |-0-0----0-0------0-0----0-0-|-0-0----0-0-----------------|-0-0----0-0------0-0----0-0-| 
A#|-0-0----0-0------0-0----0-0-|-0-0----0-0-----------------|-0-0----0-0------0-0----0-0-| 

----------------------------|----------------------------|----------------------------| 
----------------------------|----------------------------|----------------------------| 
----------------------------|----------------------------|----------------------------| 
-0-0----0-0-----------------|-0-0----0-0------0-0----0-0-|-0-0----0-0-----------------| 
-0-0----0-0-----------------|-0-0----0-0------0-0----0-0-|-0-0----0-0-----------------| 
-0-0----0-0-----------------|-0-0----0-0------0-0----0-0-|-0-0----0-0-----------------| 

----------------------------| 
----------------------------| 
----------------------------| 
-0-0----0-0------0-0----0-0-| 
-0-0----0-0------0-0----0-0-| 
-0-0----0-0------0-0----0-0-| 


Chorus III: (this is very different from the other Choruses) 

Guitar I: 
C |---------|---------|----------|-------------|---------|---------|-------------------------------------------| 
G |---------|---------|----------|-------------|---------|---------|-------------------------------------------| 
D#|---------|---------|----------|-------------|---------|---------|-------------------------------------------| 
A#|-8-------|-5-------|-12-------|-10----------|-8-------|-5-------|-------------------------------------------| 
F |-8-(x16)-|-5-(x16)-|-12-(x16)-|-10-(x12)----|-8-(x16)-|-5-(x16)-|-5-5-5-5-----------------5-5-5-5-----------| 
A#|-8-------|-5-------|-12-------|-10----------|-8-------|-5-------|---------8-8-8-8-7-7-7-7---------8-8-8-8-5-| 

--------------------------------------|---------|---------|----------|----------| 
--------------------------------------|---------|---------|----------|----------| 
--------------------------------------|---------|---------|----------|----------| 
-------------------------7------------|-8-------|-5-------|-11-------|-7--------| 
-5-5-5-5-----------------7----/12brbr-|-8-(x16)-|-5-(x16)-|-11-(x16)-|-7--------| 
---------8-8-8-8-5-5-5-5-7------------|-8-------|-5-------|-11-------|-7--------| 

Guitar II: 
C |----------|---------|----------|-------------|----------|---------| 
G |-11-------|-8-------|-15-------|-13----------|-11-------|-8-------| 
D#|--x-(x16)-|-x-(x16)-|--x-(x16)-|--x-(x12)----|--x-(x16)-|-x-(x16)-| 
A#|--8-------|-5-------|-12-------|-10----------|--8-------|-5-------| 
F |----------|---------|----------|-------------|----------|---------| 
A#|----------|---------|----------|-------------|----------|---------| 

-------------------------------------------|----------------------------------------------------| 
-------------------------------------------|----------------------------------------------------| 
-------------------------------------------|--14-14-14-14-------------------------------/14brbr-| 
-------------------------------------------|--------------15-15-15-15-12-12-12-12-11------------| 
-5-5-5-5-----------------5-5-5-5-----------|----------------------------------------------------| 
---------8-8-8-8-7-7-7-7---------8-8-8-8-5-|----------------------------------------------------| 

----------|---------|----------|----------| 
-11-------|-8-------|-14-------|-10-------| 
--x-(x16)-|-x-(x16)-|--x-(x16)-|--x-------| 
--8-------|-5-------|-11-------|--7-------| 
----------|---------|----------|----------| 
----------|---------|----------|----------| 


Outro: 

C |---------------------------------|---------------------------------|---------------------------------| 
G |---------------------------------|---------------------------------|---------------------------------| 
D#|---------------------------------|---------------------------------|---------------------------------| 
A#|---------0-----------------------|---------0-----------------------|---------0-----------------------| 
F |---------------------------------|---------------------------------|---------------------------------| 
A#|-0-3-5-3---5-3-0-3-0-3-5b--0-6b--|-0-3-5-3---5-3-0-3-0-3--10b--9b--|-0-3-5-3---5-3-0-3-0-3-5b--0-6b--| 

--------------------------| 
--------------------------| 
--------------------------| 
-0-0----0-0----0-0----0-0-| 
-0-0----0-0----0-0----0-0-| 
-0-0----0-0----0-0----0-0-| 

I hope this helped! If it did, then do leave a rating, a comment, etc. I am currently trying to tab out most 
of "The Devil," and, with this tab, I've officially covered half of the album! Keep an eye out for future 
Blue Stahli tabs, and if you want me to prioritize any songs off that album, then leave me a suggestion 
in the comments. 


TAB LEGEND 
------------------- 
.     Palm mute 
/     Slide up 
\     Slide down 
b     Bend 
br    Bend release  
x     Dead note 
------------------- 
  

top 5 | blue stahli
top rock'n roll
Outras músicas do artista letras do(a) Blue Stahli
Top cifras »Top artistas »
Petaxxon Comunicação Online
Cifras.com.br - Melhor e mais completo site de cifras e tablaturas do Brasil
Mais de 1 milhão de acordes de músicas cadastradas desde 2003
As informações contidas no nosso site são colaborações de seus usuários e podem conter erros, sendo assim, não nos responsabilizamos sobre nenhuma destas.
close
menos
mais
close
Cor dos acordes:

Cor da letra:

 

save
close
close
 
redimensionar