Cifras e Tablaturas
Bob Dylan

Bob Dylan

Wigwam (acoustic)

Cifras Cancelar Versão de Impressão Print

Bob Dylan - Wigwam (acoustic)

Tom: C

  			
Intro: C x9 
  
 Main theme 
  
  C                  F 
   :   .   .   .      :   .  . .  : . . .  : . . .  :  .   .   . 
e|---------3-3-----||------------|--------|--------|---------------| 
B|-------------1---||-3-1--------|--------|--------|-------1-3-1-3-| 
G|-----------------||-----2------|--------|--------|---------------| 
D|-----------------||------------|--------|--------|---------------| 
A|-----------------||------------|--------|--------|---------------| 
E|-----------------||------------|--------|--------|---------------| 
  C                                                   G 
   :   .   .   .   : . . .  : . . .  :   .   .   .     :   .   .   . 
e|-0--------------|--------|--------|--------------1-|-----------------| 
B|-----1----------|--------|--------|----------------|-----3-----------| 
G|-------0--------|--------|--------|--------0-2-0---|-----------------| 
D|----------------|--------|--------|----------------|-----------------| 
A|----------------|--------|--------|----------------|-----------------| 
E|----------------|--------|--------|----------------|-----------------| 
                                                        C 
   :   .   .   .     :   .   .   .     :   .   .   .     :   .   .   . 
e|-----------------|-----------------|---------------0-|-----------------| 
B|-----------------|-----------------|---------1-3-1---|-----------------| 
G|-----------------|-----------------|-----------------|-----------------| 
D|-----------------|-----------------|-----------------|-----------------| 
A|-----------------|-----------------|-----------------|-----------------| 
E|-----------------|-----------------|-----------------|-----------------| 
                                                         F 
   :   .   .   .     :   .   .   .     :   .   .   .      :   .   .   . 
e|-----------------|-----------------|-----0---1-0-----||-----------------| 
B|-----------------|-----------------|-------------3-1-||-----------------| 
G|-----------------|-----------------|-----------------||---0-2-----------| 
D|-----------------|-----------------|-----------------||-----------------| 
A|-----------------|-----------------|-----------------||-----------------| 
E|-----------------|-----------------|-----------------||-----------------| 
                                                        C 
   :   .   .   .     :   .   .   .     :   .   .   .     :   .   .   . 
e|-----------------|-----------------|-----1---1-0---1-|---0-------------| 
B|-----------------|-----------------|-------------3---|-----------------| 
G|-----------------|-----------------|-----------------|-----0-----------| 
D|-----------------|-----------------|-----------------|-----------------| 
A|-----------------|-----------------|-----------------|-----------------| 
E|-----------------|-----------------|-----------------|-----------------| 
                                                        G 
   :   .   .   .     :   .   .   .     :   .   .   .     :   .   .   . 
e|-----------------|-----------------|---------------1-|-----------------| 
B|-----------------|-----------------|-----------------|-----3-----------| 
G|-----------------|-----------------|-----0-0-0-2-0---|-----------------| 
D|-----------------|-----------------|-----------------|-----------------| 
A|-----------------|-----------------|-----------------|-----------------| 
E|-----------------|-----------------|-----------------|-----------------| 
                                                        C 
   :   .   .   .     :   .   .   .     :   .   .   .     :   .   .   . 
e|-----------------|-------------0-1-|-3-0-------------|-----------------| 
B|-----------------|---------3-------|---------3---1---|-----------------| 
G|-----------------|-----------------|-----------------|-----------------| 
D|-----------------|-----------------|-----------------|-----------------| 
A|-----------------|-----------------|-----------------|-----------------| 
E|-----------------|-----------------|-----------------|-----------------| 
                                                         C 
   :   .   .   .     :   .   .   .     :   .   .   .      :   .   .   . 
e|-----------------|-----------------|---------------0-||-------------0-0-| 
B|-----------------|-----------------|-----------------||-----------------| 
G|-----------------|-----------------|-----0---0-2-0---||-----------------| 
D|-----------------|-----------------|-----------------||-----------------| 
A|-----------------|-----------------|-----------------||-----------------| 
E|-----------------|-----------------|-----------------||-----------------| 
                                                        G 
   :   .   .   .     :   .   .   .     :   .   .   .     :   .   .   . 
e|-0---1-------3---|-----------------|-----0---1---3---|-----------------| 
B|-----------------|-----------------|-----------------|-3---------------| 
G|-----------------|-----------------|-----------------|-----------------| 
D|-----------------|-----------------|-----------------|-----------------| 
A|-----------------|-----------------|-----------------|-----------------| 
E|-----------------|-----------------|-----------------|-----------------| 
                                                        G 
   :   .   .   .     :   .   .   .     :   .   .   .     :   .   .   . 
e|-----------------|-----------------|-------------0-1-|-----3-----------| 
B|-----------------|-----------------|---------3-------|-------------3---| 
G|-----------------|-----------------|-----------------|-----------------| 
D|-----------------|-----------------|-----------------|-----------------| 
A|-----------------|-----------------|-----------------|-----------------| 
E|-----------------|-----------------|-----------------|-----------------| 
                                                        CG 
   :   .   .   .     :   .   .   .     :   .   .   .     :   .   .   . 
e|-----------------|-----------------|-----------------|-----------------| 
B|-----------1-----|-----------------|-----1-1-1---1---|-----------------| 
G|-------------2-0-|-----------------|-----------2---2-|-0---------------| 
D|-----------------|-----------------|-----------------|-----------------| 
A|-----------------|-----------------|-----------------|-----------------| 
E|-----------------|-----------------|-----------------|-----------------| 
                                                        F 
   :   .   .   .     :   .   .   .     :   .   .   .     :   .   .   . 
e|-----------------|-----------------|-----------------|-----------------| 
B|-----------------|-----------------|-----------------|-----------------| 
G|-----------------|-----------------|---------0-0-0-2-|-----------------| 
D|-----------------|-----------------|-----------------|-----------------| 
A|-----------------|-----------------|-----------------|-----------------| 
E|-----------------|-----------------|-----------------|-----------------| 
                                                        C 
   :   .   .   .     :   .   .   .     :   .   .   .     :   .   .   . 
e|-----------------|-----------------|---------3-3-1-3-|-0---------------| 
B|---------------1-|-----------------|-----------------|---1-------------| 
G|-----------2-2---|-----------------|-----------------|-----------------| 
D|---------3-------|-----------------|-----------------|-----------------| 
A|-----------------|-----------------|-----------------|-----------------| 
E|-----------------|-----------------|-----------------|-----------------| 
                                                        G 
   :   .   .   .     :   .   .   .     :   .   .   .     :   .   .   . 
e|-----------------|-----------------|-----------------|-------------3---| 
B|-----------------|-----------------|-----------------|---------------3-| 
G|---------2-0---0-|-----------------|---------------0-|-----------------| 
D|-------------2---|-----------------|---------2-3-----|-----------------| 
A|-----------------|-----------------|-----------------|-----------------| 
E|-----------------|-----------------|-----------------|-----------------| 
                                                        C 
   :   .   .   .     :   .   .   .     :   .   .   .     :   .   .   . 
e|---------------0-|-1-----------1---|-0---------------|-----------------| 
B|-------------3---|-----------------|-----3---1---1---|-----------------| 
G|-----------------|-----------------|-----------------|-----------------| 
D|-----------------|-----------------|-----------------|-----------------| 
A|-----------------|-----------------|-----------------|-----------------| 
E|-----------------|-----------------|-----------------|-----------------| 
                                                         C 
   :   .   .   .     :   .   .   .     :   .   .   .      :   .   .   . 
e|-----------------|-----------------|---------------0-||-----------------| 
B|-----------------|-----------------|-----------------||-----------------| 
G|-----------------|-----------------|---------0-2-0---||-----------------| 
D|-----------------|-----------------|-----------------||-----------------| 
A|-----------------|-----------------|-----------------||-----------------| 
E|-----------------|-----------------|-----------------||-----------------| 
                                                        F 
   :   .   .   .     :   .   .   .     :   .   .   .     :   .   .   . 
e|-----------------|-----------------|---------0-0-----|-----------------| 
B|-----------------|-----------------|-------------3-1-|-----------------| 
G|-----------------|-----------------|-----------------|-----------------| 
D|-----------------|-----------------|-----------------|-----------------| 
A|-----------------|-----------------|-----------------|-----------------| 
E|-----------------|-----------------|-----------------|-----------------| 
                                                        G 
   :   .   .   .     :   .   .   .     :   .   .   .     :   .   .   . 
e|-----------------|-----------------|---------1-3-----|-----------------| 
B|-----------------|-----------------|---------------3-|-----------------| 
G|-----------------|-----------------|-----------------|-----------------| 
D|-----------------|-----------------|-----------------|-----------------| 
A|-----------------|-----------------|-----------------|-----------------| 
E|-----------------|-----------------|-----------------|-----------------| 
                                                        C 
   :   .   .   .     :   .   .   .     :   .   .   .     :   .   .   . 
e|-----------------|---------------1-|-----0---------0-|-----------------| 
B|-----------------|-----------------|-------3-----3---|-----------------| 
G|-----------------|---------0-0-----|-----------------|-----------------| 
D|-----------------|-----------------|-----------------|-----------------| 
A|-----------------|-----------------|-----------------|-----------------| 
E|-----------------|-----------------|-----------------|-----------------| 
                                                        C 
   :   .   .   .     :   .   .   .     :   .   .   .     :   .   .   . 
e|-----------------|-----------------|-0---1-0-1-0-----|-----------------| 
B|-----------------|-----------------|-------------1-1-|-----------------| 
G|-----------------|-----------------|-----------------|-----------------| 
D|-----------------|-----------------|-----------------|-----------------| 
A|-----------------|-----------------|-----------------|-----------------| 
E|-----------------|-----------------|-----------------|-----------------| 
                                                        F 
   :   .   .   .     :   .   .   .     :   .   .   .     :   .   .   . 
e|-----------------|-----------------|---------0---1---|-----------------| 
B|-----------------|---------1---1-1-|-----3-----------|---1-------------| 
G|-----------------|-----------------|-----------------|-----2-----------| 
D|-----------------|-----------------|-----------------|-----------------| 
A|-----------------|-----------------|-----------------|-----------------| 
E|-----------------|-----------------|-----------------|-----------------| 
                                                        C 
   :   .   .   .     :   .   .   .     :   .   .   .     :   .   .   . 
e|-----------------|-----------------|-5---3-----0---3-|-----------------| 
B|-----------------|-----------------|-----------------|-1---------------| 
G|-----------------|-----------------|-----------------|-----------------| 
D|-----------------|-----------------|-----------------|-----------------| 
A|-----------------|-----------------|-----------------|-----------------| 
E|-----------------|-----------------|-----------------|-----------------| 
                     G                                   C 
   :   .   .   .     :   .   .   .     :   .   .   .     :   .   .   . 
e|-----------0---1-|-------------1-0-|-----------------|-----------------| 
B|---------3-------|-----------------|-----3-----------|-1---------------| 
G|-----------------|-----------------|-----------------|-----------------| 
D|-----------------|-----------------|-----------------|-----------------| 
A|-----------------|-----------------|-----------------|-----------------| 
E|-----------------|-----------------|-----------------|-----------------| 
  F                 C 
  :   .   .   .     :   .   .   .     :   .   .   . 
e|-----------------|-----------------|-----------------| 
B|-----------------|-----------------|-----------------| 
G|-----------------|-----------------|-----------------| 
D|-----------------|-----------------|-----------------| 
A|-----------------|-----------------|-----------------| 
E|-----------------|-----------------|-----------------| 


************************************ 
|:...   Count 
************************************ 
    	
fixar
fixar inscrever-se

enviado porenviado por: adalgomes
cifra enviadaCorrigida por: sem correções
logo top cifrasComente
ico música do artistaMúsicas deste artista
ico curtiuCurtiu?
ico destaqueDestaque
Petaxxon Comunicação Online

Cifras.com.br - Melhor e mais completo site de cifras e tablaturas do Brasil Mais de 1 milhão de acordes de músicas cadastradas desde 2003
As informações contidas no nosso site são colaborações de seus usuários e podem conter erros, sendo assim, não nos responsabilizamos sobre nenhuma destas.

close
menos
mais
close
Cor dos acordes:

Cor da letra:

close
Alinhar acordes a direita Alinhar acordes a esquerda Alinhar acordes em baixo Alinhar acordes no topo
close
  Mostrar todos os acordes Esconder acordes muito fáceis Esconder acordes fáceis Esconder acordes intermediários
redimensionar
glossário