Cifras e Tablaturas
Boogarins

Boogarins

Tempo

Cifras Cancelar Versão de Impressão
cifras

Boogarins - Tempo

fixar na tela  
Exibindo: vídeo-aula ver clipes redimensionar

Tom:

  
E|-----------------------------------------|--------------------------------- 
B|---11s13--11--10--8--10--11-11s13--10----|---11s13--11--10--8--10--9--8---- 
G|---10s11--10--9---8---9--10-10s12--9-----|---10s11--10--9---8---9--9--7---- 
D|-----------------------------------------|--------------------------------- 
A|-----------------------------------------|--------------------------------- 
E|-----------------------------------------|--------------------------------- 
 

riff 2                                variação 1                           variação 2 
 
E|------------------------------|------------------------|------------------------------------| 
B|------------------------------|------------------------|------------------------------------| 
G|------------------------------|------------------------|--------------------------3-5-5^-5b3| 
D|---------7s5---4s5------------|---------7s5---4s5-3----|---------7s5---4s5-3-----4----------| 
A|---8s7--5---------------------|---8s7--5------------5s6|---8s7--5-----------5s6-------------| 
E|--6-----------3------3-4--6-3-|--6-----------3---------|--6-----------3---------------------| 
 



riff 1  

Vou me libertar 
Do tempo dos homens 
Só vou te encontrar 
Enquanto eles dormem 

riff 2 

riff 1 

Não vou me importar 
Com o tanto que podem 
Pois quero afrouxar 
A coleira dos homens 

riff 2 



riff 2 variação 1 

Esqueça das horas 
Pois nada demora 

Ame e deixe os outros 
Pois bando de bicho solto 
É bem melhor 

riff 2 variação 2 
  

top 5 | boogarins
top rock'n roll
Outras músicas do artista letras do(a) Boogarins
1.
Doce
5.
Paul
Top cifras »Top artistas »
Petaxxon Comunicação Online
Cifras.com.br - Melhor e mais completo site de cifras e tablaturas do Brasil
Mais de 1 milhão de acordes de músicas cadastradas desde 2003
As informações contidas no nosso site são colaborações de seus usuários e podem conter erros, sendo assim, não nos responsabilizamos sobre nenhuma destas.
close
menos
mais
close
Cor dos acordes:

Cor da letra:

 

save
close
close
 
redimensionar