Cifras e Tablaturas
Brand New

Brand New

Batter Up

Cifras Cancelar Versão de Impressão
cifras

Brand New - Batter Up

fixar na tela  
Exibindo: vídeo-aula ver clipes redimensionar

Tom:

  

Intro/Verse: 
e|-----------------------------------------------------------------| 
B|-----------------------------------------------------------------| 
G|-----1-------1-------1-------1-------4-------4-------4-------4---| x5 
D|---2---2---2---2---2---2---2---2---6---6---6---6---6---6---6---6-| 
A|-0-------0-------0-------0-------4-------4-------4-------4-------| 
E|-----------------------------------------------------------------| 

e|-----------------------------------------------------------------| 
B|-----------------------------------------------------------------| 
G|-----1-------1-------1-------1-------4-------4-------------------| 
D|---2---2---2---2---2---2---2---2---6---6---6---6-----------------| 
A|-0-------0-------0-------0-------4-------4-------4---------------| 
E|-----------------------------------------------------------------| 



Chorus: 
e|-----------------------------------------------------------------| 
B|-----------------------------------------------------------------| 
G|---------------------2-------4-------6-------4-------4-------4---| 
D|-----2-------2-----2---2---4---4---6---6---6---6---6---6---6---6-| 
A|---2---2---2---0-0-------2-------4-------4-------4-------4-------| 
E|-0-------0-------------------------------------------------------| 

e|-----------------------------------------------------------------| 
B|-----------------------------------------------------------------| 
G|---------------------2-------4-------6-------4---------4h6h4-----| 
D|-----2-------2-----2---2---4---4---6---6---6---6---------------6-| 
A|---2---2---2---0-0-------2-------4-------4-------4---------------| 
E|-0-------0-------------------------------------------------------| 



Guitar Interlude: 
e|-----------------------------------------------------------------| 
B|-----------------------------------------------------------------| 
G|-----1-------1-------1-------1-------4-------4-------4-------4---| 
D|---2---2---2---2---2---2---2---2---6---6---6---6---6---6---6---6-| 
A|-0-------0-------0-------0-------4-------4-------4-------4-------| 
E|-----------------------------------------------------------------| 
 |                                                                 | 
e|---------------------------9---7---------------------------------| 
B|-----------9---------------------7/9-------------7/9-------------| 
G|-9------------------------------------------------------8/9------| 
D|-------------9/11--------------------------------------------6/7-| 
A|-----------------------------------------------------------------| 
E|-----------------------------------------------------------------| 
 |                                                                 | 
e|-----------12-11-----------12-11-----------------7/9-------------| 
B|-14-------------12--------------12/14-------------------9/10-----| 
G|-------------------------------------------------------------8/9-| 
D|-----------------------------------------------------------------| 
A|-----------------------------------------------------------------| 
E|-----------------------------------------------------------------| 

e|-----------------------------------------------------------------| 
B|-----------------------------------------------------------------| 
G|-----1-------1-------1-------1-------4-------4-------4-------4---| 
D|---2---2---2---2---2---2---2---2---6---6---6---6---6---6---6---6-| 
A|-0-------0-------0-------0-------4-------4-------4-------4-------| 
E|-----------------------------------------------------------------| 
 |                                                                 | 
e|-------------------------------------------------------7h9-------| 
B|----------7h9h7----------------5-----------------7h9-------------| 
G|-------------------8h9h8--------6--------------------------------| 
D|-7------------------------6h7h6----------------------------------| 
A|-----------------------------------------------------------------| 
E|-----------------------------------------------------------------| 
 |                                                                 | 
e|----------7h9h7----------------------------------------11h12--14-|-12--| 
B|-------------------9h10h9-------9----------------12h14-----------|-----| 
G|-9------------------------8h9h8----------------------------------|-----| 
D|-------------------------------9---------------------------------|-----| 
A|-----------------------------------------------------------------|-----| 
E|-----------------------------------------------------------------|-----| 



Verse: 
e|-----------------------------------------------------------------| 
B|-----------------------------------------------------------------| 
G|-----1-------1-------1-------1-------4-------4-------4-------4---| 
D|---2---2---2---2---2---2---2---2---6---6---6---6---6---6---6---6-| 
A|-0-------0-------0-------0-------4-------4-------4-------4-------| 
E|-----------------------------------------------------------------| 

e|-----------------------------------------------------------------| 
B|-----------------------------------------------------------------| 
G|-----1-------1-------1-------1-------4-------4-------4-------4---| 
D|---2---2---2---2---2---2---2---2---6---6---6---6---6---6---6---6-| 
A|-0-------0-------0-------0-------4-------4-------4-------4-------| 
E|-----------------------------------------------------------------| 
 |                                                                 | 
e|-------------------------------------------------------7h9---7---|-5---| 
B|---7h9h7------------------------5----------------7h9-------------|-----| 
G|-----------8h9h8-----------------6-------------------------------|-----| 
D|-------------------6h7h6---6h7h6---------------------------------|-----| 
A|-----------------------------------------------------------------|-----| 
E|-----------------------------------------------------------------|-----| 
 |                                                                 | 
e|---7h9h7-----------------------------------------------11h12--14-|-12--| 
B|-----------9h10h9----------------9---------------12h14-----------|-----| 
G|-------------------8h9h8---8h9h8---------------------------------|-----| 
D|--------------------------------9--------------------------------|-----| 
A|-----------------------------------------------------------------|-----| 
E|-----------------------------------------------------------------|-----| 

e|-----------------------------------------------------------------| 
B|-----------------------------------------------------------------| 
G|-----1-------1-------1-------1-------4-------4-------4-------4---| 
D|---2---2---2---2---2---2---2---2---6---6---6---6---6---6---6---6-| 
A|-0-------0-------0-------0-------4-------4-------4-------4-------| 
E|-----------------------------------------------------------------| 

e|-----------------------------------------------------------------| 
B|-----------------------------------------------------------------| 
G|-----1-------1-------1-------1-------4---------------------------| 
D|---2---2---2---2---2---2---2---2---6---6-------------------------| 
A|-0-------0-------0-------0-------4-------------------------------| 
E|-----------------------------------------------------------------| 



Chorus: 
e|-----------------------------------------------------------------| 
B|-----------------------------------------------------------------| 
G|---------------------2-------4-------6-------4-------4-------4---| 
D|-----2-------2-----2---2---4---4---6---6---6---6---6---6---6---6-| 
A|---2---2---2---0-0-------2-------4-------4-------4-------4-------| 
E|-0-------0-------------------------------------------------------| 
 |                                                                 | 
e|-----------------------------------------------------------------| 
B|-----------------------------------------------------------------| 
G|-----------------------------------------------------------------| 
D|-------------------------11~~~~~~~~~~~~~~~~~~~~~~~~~~~~~~~~~~----| 
A|-----------------------------------------------------------------| 
E|-----------------------------------------------------------------| 

e|-----------------------------------------------------------------| 
B|-----------------------------------------------------------------| 
G|---------------------2-------4-------6-------4-------4-------4---| 
D|-----2-------2-----2---2---4---4---6---6---6---6---6---6---6---6-| 
A|---2---2---2---0-0-------2-------4-------4-------4-------4-------| 
E|-0-------0-------------------------------------------------------| 
 |                                                                 | 
e|-----------------------------------------------------------------| 
B|-----------------------------------------------------------------| 
G|-11~~~~~~~~~~----14~~~~~~~~~~----13~~~~~~~~~~~~~~~~~~~~~~~~~~----| 
D|-----------------------------------------------------------------| 
A|-----------------------------------------------------------------| 
E|-----------------------------------------------------------------| 
(Note: To get Vin's guitar sound here, use a long reverb and long delay  
 with some distortion and swell each note with a volume knob or pedal) 



Bridge: 
e|-----------------------------------------------------------------| 
B|-----------------------------------------------------------------| 
G|-----2-------2-------6-------6---------------2h1-----6-------6---| 
D|---2---2---2---2---6---6---6---6-----2-----2-------6---6---6---6-| 
A|-0-------0-------4-------4---------2---0-0-------4-------4-------| 
E|---------------------------------0-------------------------------| 

e|---------------------------------------------------------| 
B|---------------------------------------------------------| 
G|-----2-------2-------6-------6---------------2h1-----6---| 
D|---2---2---2---2---6---6---6---6-----2-----2-------6---6-| 
A|-0-------0-------4-------4---------2---0-0-------4-------| 
E|---------------------------------0-----------------------| 

e|------------------------------------------------------------------| 
B|------------------------------------------------------------------| 
G|-------------2h1-----6----------------2-------2-------1-------1---| 
D|-----2-----2-------6---6-----2------2---2---2---2---2---2---2---2-| 
A|---2---0-0-------4---------2---0--0-------0-------0-------0-------| 
E|-0-----------------------0----------------------------------------| 

e|----------------------------------| 
B|----------------------------------| 
G|-----4-------4--------4h6h4-------| 
D|---6---6---6---6----------------6-| 
A|-4-------4-------4----------------|  
E|----------------------------------| 

e|-----------------------------------------------------------------| 
B|-----------------------------------------------------------------| 
G|-----1-------1-------1-------1-------4-------4-------------------| 
D|---2---2---2---2---2---2---2---2---6---6---6---6-----------------| 
A|-0-------0-------0-------0-------4-------4-------4---------------| 
E|-----------------------------------------------------------------| 
 |                                                                 | 
e|-----------------------------------------------------------------| 
B|-----------9---------------9---7---------------------------------| 
G|-9-------------------------------8/9-----------------------------| 
D|-------------9/11------------------------------------------------| 
A|-----------------------------------------------------------------| 
E|-----------------------------------------------------------------| 
 |                                                                 | 
e|-----------12-11-----------12-11---------------------------------| 
B|-14-------------12--------------12/14----------------------------| 
G|-----------------------------------------------------------------| 
D|-----------------------------------------------------------------| 
A|-----------------------------------------------------------------| 
E|-----------------------------------------------------------------| 



Chorus: 
e|-----------------------------------------------------------------| 
B|-----------------------------------------------------------------| 
G|---------------------2-------4-------6-------4-------4-------4---| 
D|-----2-------2-----2---2---4---4---6---6---6---6---6---6---6---6-| 
A|---2---2---2---0-0-------2-------4-------4-------4-------4-------| 
E|-0-------0-------------------------------------------------------| 
 |                                                                 | 
e|-----------------------------------------------------------------| 
B|-----------------------------------------------------------------| 
G|-----------------------------------------------------------------| 
D|-------------------------11~~~~~~~~~~~~~~~~~~~~~~~~~~~~~~~~~~----| 
A|-----------------------------------------------------------------| 
E|-----------------------------------------------------------------| 

e|-----------------------------------------------------------------| 
B|-----------------------------------------------------------------| 
G|---------------------2-------4-------6-------4-------4-------4---| 
D|-----2-------2-----2---2---4---4---6---6---6---6---6---6---6---6-| 
A|---2---2---2---0-0-------2-------4-------4-------4-------4-------| 
E|-0-------0-------------------------------------------------------| 
 |                                                                 | 
e|-----------------------------------------------------------------| 
B|-----------------------------------------------------------------| 
G|-11~~~~~~~~~~----14~~~~~~~~~~----13~~~~~~~~~~~~~~~~~~~~~~~~~~----| 
D|-----------------------------------------------------------------| 
A|-----------------------------------------------------------------| 
E|-----------------------------------------------------------------| 

e|-----------------------------------------------------------------| 
B|-----------------------------------------------------------------| 
G|-----2---------------2-------4-------6-------4-------4-------4---| 
D|---2---2-----2-----2---2---4---4---6---6---6---6---6---6---6---6-| 
A|-0---------2---0-0-------2-------4-------4-------4-------4-------| 
E|---------0-------------------------------------------------------| 
 |                                                                 | 
 | different guitar, plays around with this                        | 
e|-----------4-----------------------------------------------4-----| 
B|---5---7-------7---5---7---5---5---5---7---5---5---5---7-------7-| 
G|-6---6---6---6---6---6---6---6---6---6---6---6---6---6---6---6---| 
D|-----------------------------------------------------------------| 
A|-----------------------------------------------------------------| 
E|-----------------------------------------------------------------| 

e|---------------------------------------------------------------------------------| 
B|---------------------------------------------------------------------------------| 
G|---------------------2-------4-------6-------6-------2-------4-------6-------6---| 
D|-----2-------2-----2---2---4---4---6---6---6---6---2---2---4---4---6---6---6---6-| 
A|---2---2---2---0-0-------2-------4-------4-------0-------2-------4-------4-------| 
E|-0-------0-----------------------------------------------------------------------| 
 |                                                                 | 
e|-----------------------------------------------------------------| 
B|-----------------------------------------------------------------| 
G|-11~~~~~~~~~~----14~~~~~~~~~~----13~~~~~~~~~~~~~~~~~~~~~~~~~~----| 
D|-----------------------------------------------------------------| 
A|-----------------------------------------------------------------| 
E|-----------------------------------------------------------------| 

e|------------------------------------------------------------------| 
B|------------------------------------------------------------------| 
G|-----2-------2-----------------------6-------4----------4h6h4-----| 
D|---2---2---2---2-----2-------------6---6---6---6----------------6-| 
A|-0-------0---------2-------------4-------4-------4----------------| 
E|-----------------0------------------------------------------------| 



Guitar Interlude: 
e|-----------------------------------------------------------------| 
B|-----------------------------------------------------------------| 
G|-----1-------1-------1-------1-------4-------4-------4-------4---| 
D|---2---2---2---2---2---2---2---2---6---6---6---6---6---6---6---6-| 
A|-0-------0-------0-------0-------4-------4-------4-------4-------| 
E|-----------------------------------------------------------------| 
 |                                                                 | 
e|-----------------------------------------------------------------| 
B|-----------9---------------9---7-----------------7/9-------------| 
G|-9-------------------------------8/9--------------------8/9------| 
D|-------------9/11--------------------------------------------6/7-| 
A|-----------------------------------------------------------------| 
E|-----------------------------------------------------------------| 
 |                                                                 | 
e|-----------12-11-----------12-11-----------------7/9-------------| 
B|-14-------------12--------------12/14-------------------9/10-----| 
G|-------------------------------------------------------------8/9-| 
D|-----------------------------------------------------------------| 
A|-----------------------------------------------------------------| 
E|-----------------------------------------------------------------| 

e|----------------------------------------------------------------------| 
B|----------------------------------------------------------------------| 
G|-----1-------1-------1-------1-------4-------4-------4---------4------| 
D|---2---2---2---2---2---2---2---2---6---6---6---6---6---6----6-----6---| 
A|-0-------0-------0-------0-------4-------4-------4-------4------------| 
E|----------------------------------------------------------------------| 
 |                                                                      | 
e|-------------------------------------------------------7h9----12h14h12| 
B|----------7h9h7----------------5-----------------7h9------------------| 
G|-------------------8h9h8--------6-------------------------------------| 
D|-7------------------------6h7h6---------------------------------------| 
A|----------------------------------------------------------------------| 
E|----------------------------------------------------------------------| 
 |                                                                      | 
e|----------7h9h7----------------------------------------11h12--16h17h16| 
B|-------------------9h10h9-------9----------------12h14----------------| 
G|-9------------------------8h9h8---------------------------------------| 
D|-------------------------------9--------------------------------------| 
A|----------------------------------------------------------------------| 
E|----------------------------------------------------------------------| 

e|------------------------------------------------------------------| 
B|------------------------------------------------------------------| 
G|-----1-------1-------1-------1-------4-------4-------4-------4----| 
D|---2---2---2---2---2---2---2---2---6---6---6---6---6---6---6---6--| 
A|-0-------0-------0-------0-------4-------4-------4-------4--------| 
E|------------------------------------------------------------------| 
 |                                                                  | 
e|-------------------------12h14h12---------------------------------| 
B|-10-------------------------------9-------------------------------| 
G|------------------------------------------------------------------| 
D|------------------------------------------------------------------| 
A|------------------------------------------------------------------| 
E|------------------------------------------------------------------| 
 |                                                                  | 
e|-12----------------------16h17h16---------------------------------| 
B|---------------------------------14-------------------------------| 
G|------------------------------------------------------------------| 
D|------------------------------------------------------------------| 
A|------------------------------------------------------------------| 
E|------------------------------------------------------------------| 

e|------------------------------------------------------------------| 
B|------------------------------------------------------------------| 
G|-----1-------1-------1-------1-------4-------4-------4-------4----| 
D|---2---2---2---2---2---2---2---2---6---6---6---6---6---6---6---6--| 
A|-0-------0-------0-------0-------4-------4-------4-------4--------| 
E|------------------------------------------------------------------| 
 |                                                                  | 
 | slightly dist guitar, panned left                                | 
e|-----------4---------------4---------------4---------------5------| 
B|---5---7-------7---5---7-------7---5---7-------7---5---7-------7--| 
G|-6---6---6---6---6---6---6---6---6---6---6---6---6---6---6---6----| 
D|------------------------------------------------------------------| 
A|------------------------------------------------------------------| 
E|------------------------------------------------------------------| 
this lead part just kinda fades away 

6:31 
e|------------------------------------------------------------------| 
B|------------------------------------------------------------------| 
G|-----1-------1-------1-------1-------4-------4-------4-------4----| 
D|---2---2---2---2---2---2---2---2---6---6---6---6---6---6---6---6--| 
A|-0-------0-------0-------0-------4-------4-------4-------4--------| 
E|------------------------------------------------------------------| 
 |                                                                  | 
 | clean guitar, panned left                                        | 
e|------------------------------------------------------------------| 
B|---5--------------------------------------------------------------| 
G|-------6-----4/6--------------------------------------------------| 
D|-----------------------------6h7h6-----------4/6---------6h7h6--4-| 
A|------------------------------------------------------------------| 
E|------------------------------------------------------------------| 

e|------------------------------------------------------------------| 
B|------------------------------------------------------------------| 
G|-----1-------1-------1-------1-------4-------4--------------------| 
D|---2---2---2---2---2---2---2---2---6---6---6---6------------------| 
A|-0-------0-------0-------0-------4-------4-------4----------------| 
E|------------------------------------------------------------------| 
 |                                                                  | 
e|------------------------------------------------------------------| 
B|-------------------5---4------------------------------------------| 
G|-------------------------------6----------------------------------| 
D|---2--------------------------------------------------------------| 
A|------------------------------------------------------------------| 
E|------------------------------------------------------------------| 

Then into ambience and that's it  




************************************ 

| x   Dead note 
| g   Grace note 
| (n) Ghost note 
| h   Hammer-on 
| p   Pull-off 
| r   Release 
| >   Accented note 
| t   Tapping 
| b   Bend 
| br  Bend release 
| pb  Pre-bend 
| pbr Pre-bend release 
| /   Slide up 
| \   Slide down 
| ~   Vibrato 
| s   Slap 
| P   Pop 
| PM  Palm mute 
| TR  Trill 
| N   Tremolo 

************************************ 
  

top 5 | brand new
top rock alternativo
Outras músicas do artista letras do(a) Brand New
3.
451
Top cifras »Top artistas »
Petaxxon Comunicação Online
Cifras.com.br - Melhor e mais completo site de cifras e tablaturas do Brasil
Mais de 1 milhão de acordes de músicas cadastradas desde 2003
As informações contidas no nosso site são colaborações de seus usuários e podem conter erros, sendo assim, não nos responsabilizamos sobre nenhuma destas.
close
menos
mais
close
Cor dos acordes:

Cor da letra:

 

save
close
close
 
redimensionar