Cifras e Tablaturas
Breakdown Of Sanity

Breakdown Of Sanity

Coexistence

Cifras Cancelar Versão de Impressão
cifras

Breakdown Of Sanity - Coexistence

fixar na tela  
Exibindo: vídeo-aula ver clipes redimensionar
  
Intro (Clean Part) 
Let Ring.. 
e|---------------------------------------------------------------------------| 
B|--------------------------------------------7--7\9-------------------------| 
G|---6--------4---6------4-------4-6------------------8---6------------------| 
D|-----------------------------6---------------------------------------------| 
A|---------------------------------------------------------------------------| 
E|---------------------------------------------------------------------------| 
A|---------------------------------------------------------------------------| 


e|---------------------------------------------------------------------------| 
B|----------------------------------------7\9--------------------------------| 
G|---8--6---------4-6------------8\9-----------8---6-------------------------| 
D|--------------6------------------------------------------------------------| 
A|---------------------------------------------------------------------------| 
E|---------------------------------------------------------------------------| 
A|---------------------------------------------------------------------------| 


Drums come in at 0:45 but I cannot figure out the guitar for that part yet. 
I will update when I get it :D  


Lead (Distortion) 
1:28 
e|---------------------------------------------------------------------------| 
B|---16b-16--14--12--14-14~~-------16b-16--14--12--14-14---------------------|  
G|--------------------------------------------------------16-----------------|   
D|---------------------------------------------------------------------------|     
A|---------------------------------------------------------------------------|     
E|---------------------------------------------------------------------------|     
A|---------------------------------------------------------------------------|       
                                                                                 Repeat this 4x then end on 
                                                                                 14 the last time to finish. 

e|------------------------------------------------------16--11---------------| 
B|---16b-16--14--12--14-14~~--------16b-16--14--12--14------------------14~~-| 
G|---------------------------------------------------------------------------| 
D|---------------------------------------------------------------------------| 
A|---------------------------------------------------------------------------| 
E|---------------------------------------------------------------------------| 
A|---------------------------------------------------------------------------| 


Rhythm (Distortion) 
Let Ring..  
e|---------------------------------------------------------------------------| 
B|---------------------------------------------------------------------------| 
G|---------------------------------------------------------------------------| 
D|---------------------------------------------------------------------------|    Repeat 4x with Lead.  
A|--0-------0--2-------4-----2--------0-------0--2-------4------7--2---------|    End with Open Chord. 
E|--0-------0--2-------4-----2--------0-------0--2-------4------7--2---------| 
A|--0-------0--2-------4-----2--------0-------0--2-------4------7--2---------| 
                                                                                  

e|---------------------------------------------------------------------------| 
B|---------------------------------------------------------------------------| 
G|---------------------------------------------------------------------------| 
D|---------------------------------------------------------------------------| 
A|----0----------------------------------------------------------------------| 
E|----0----------------------------------------------------------------------| 
A|----0----------------------------------------------------------------------| 


************************************ 

| b   Bend 
| /   Slide up 
| ~   Vibrato 

************************************ 
  

top 5 | breakdown of sanity
top rock'n roll
Outras músicas do artista letras do(a) Breakdown Of Sanity
Top cifras »Top artistas »
Petaxxon Comunicação Online
Cifras.com.br - Melhor e mais completo site de cifras e tablaturas do Brasil
Mais de 1 milhão de acordes de músicas cadastradas desde 2003
As informações contidas no nosso site são colaborações de seus usuários e podem conter erros, sendo assim, não nos responsabilizamos sobre nenhuma destas.
close
menos
mais
close
Cor dos acordes:

Cor da letra:

 

save
close
close
 
redimensionar