Cifras e Tablaturas
Breaking Benjamin

Breaking Benjamin

Feed The Wolf

Cifras Cancelar Versão de Impressão

Breaking Benjamin - Feed The Wolf

Tom: A#

  			
Intro (0:00) 
(Distortion) 
C |-----------------------------------------7----7--|-----------------------------------------------| 
G |-----------------------------------------6----6--|-----------------------------------------------| 
D#|-----------------------------------------5----5--|-----------------------------------------------| 
A#|-----------------------------------------3----3--|----------------------------------------3---1--| x2 
F |--------------------1--------------------3----3--|--------------------1-------------------3---1--| 
A#|--0--2--0--3--2--0-----3--0--3--2--0-----3----3--|--0--2--0--3--2--0-----3--0--3--2--0----3---1--| 

Verse (0:12) 
(Clean/Distortion) 
C |---------------------(3)-------------------------|--------------------(3)------------------------| 
G |--5-------------------3--------------------------|--5------------------3-------------------------| 
D#|--4-------------------5--------------------------|--4------------------5-------------------------| 
A#|--2-------------------5-----------------5--5--5--|--2------------------5----------------3--3--3--|  
F |--2-------------------3-----------------5--5--5--|--2------------------3----------------3--3--3--| 
A#|--2-------------------------------------5--5--5--|--2-----------------------------------3--3--3--| 
   Clean                                             Clean 
   I can feel...  ...within...                       I chain...   ...myself... 

C |------------------------(3)----------------------|-------------------------(3)-------------------| 
G |-------------------------3-----------------------|--------------------------3--------------------| 
D#|-------------------------5-----------------------|--------------------------5--------------------| 
A#|--2-2----2-2----X-X------5--------------5--5--5--|--2-2----2-2----X-X-------5--------X--5--X--3--|  
F |--2-2----2-2----X-X------3--------------5--5--5--|--2-2----2-2----X-X-------3--------X--5--X--3--| 
A#|--2-2----2-2----X-X---------------------5--5--5--|--2-2----2-2----X-X----------------X--5--X--3--| 
    pm pm  pm pm  pm pm                               pm pm  pm pm  pm pm 
                           
   I hear the call...                                I sleep no more... 

Chorus (0:37) 
(Distortion) 
C |-------------------------------------------------|-----------------------------------------------| 
G |-----------------------(5)-----------------------|------------------(5)--------------------------| 
D#|------------------------5------------------------|-------------------5---------------------------| 
A#|--2---------------------5---------------5--5--5--|--2----------------5---------------X--5--X--3--| x2 
F |--2---------------------3---------------5--5--5--|--2----------------3---------------X--5--X--3--| 
A#|--2-------------------------------------5--5--5--|--2--------------------------------X--5--X--3--| 

   Carry me through this...                           Feel no more.... 
   Bury me in this...                                 Feed the wolf... 

Transition (1:02) 
(Distortion) 
C |-----------------------------------------7----7--|-----------------------------------------------| 
G |-----------------------------------------6----6--|-----------------------------------------------| 
D#|-----------------------------------------5----5--|-----------------------------------------------| 
A#|-----------------------------------------3----3--|-----------------------------------------------|  
F |--------------------1--------------------3----3--|--------------------1----------------------8---| 
A#|--0--2--0--3--2--0-----3--0--3--2--0-----3----3--|--0--2--0--3--2--0-----3--0--3--2--0--3-/8---0-| 


Verse (1:08) 
(Clean/Distortion) 
C |---------------------(3)-------------------------|--------------------(3)------------------------| 
G |--5-------------------3--------------------------|--5------------------3-------------------------| 
D#|--4-------------------5--------------------------|--4------------------5-------------------------| 
A#|--2-------------------5-----------------5--5--5--|--2------------------5----------------3--3--3--|  
F |--2-------------------3-----------------5--5--5--|--2------------------3----------------3--3--3--| 
A#|--2-------------------------------------5--5--5--|--2-----------------------------------3--3--3--| 
   Clean                                             Clean 
   I can see...                                      I choke the breath... 

C |------------------------(3)----------------------|-------------------------(3)-------------------| 
G |-------------------------3-----------------------|--------------------------3--------------------| 
D#|-------------------------5-----------------------|--------------------------5--------------------| 
A#|--2-2----2-2----X-X------5--------------5--5--5--|--2-2----2-2----X-X-------5--------X--5--X--3--|  
F |--2-2----2-2----X-X------3--------------5--5--5--|--2-2----2-2----X-X-------3--------X--5--X--3--| 
A#|--2-2----2-2----X-X---------------------5--5--5--|--2-2----2-2----X-X----------------X--5--X--3--| 
    pm pm  pm pm  pm pm                               pm pm  pm pm  pm pm 

   I feel the pull...                                I bleed no more... 

Chorus (1:33) 
(Distortion) 
C |-------------------------------------------------|-----------------------------------------------| 
G |-----------------------(5)-----------------------|------------------(5)--------------------------| 
D#|------------------------5------------------------|-------------------5---------------------------| 
A#|--2---------------------5---------------5--5--5--|--2----------------5---------------X--5--X--3--| x2 
F |--2---------------------3---------------5--5--5--|--2----------------3---------------X--5--X--3--| 
A#|--2-------------------------------------5--5--5--|--2--------------------------------X--5--X--3--| 

   Carry me through this...                           Feel no more... 
   Bury me in this...                                 Feed the wolf... 

Bridge (1:58) 
(GTR I - Light Distortion) 
C |-------------------------------------|                     |-----| 
G |-------------------------------------|                     |-----| 
D#|-------------------------------------|                     |-----| 
A#|--2----------2-----(2)--3------------| x4  || 4th ends on  |--3--| 
F |-------------------------------------|                     |--3--| 
A#|-------------------------------------|                     |--3--| 

(GTR II - Chorus/Flanger) 
C |-------------------------------------| 
G |-----5h6p5------5h6p5----5-6---------| 
D#|-------------------------------------|  
A#|-------------------------------------| x4 
F |-------------------------------------| 
A#|-------------------------------------| 

(Distortion) 
C |-------------------------------------------------|-----------------------------------------------| 
G |-------------------------------------------------|-----------------------------------------------| 
D#|-------------------------------------------------|-----------------------------------------------| 
A#|-------------------------------------------------|-----------------------------------------------|  
F |----------------------------------------1--------|------------------------------------------5-8--| 
A#|--2b3b2--0--3--2----2b3b2--0--3--2--------3-0-3--|--2b3b2--0--3--2----2b3b2--0--3--2----3-6------| 

C |-------------------------------------------------|-----------------------------------------------| 
G |-------------------------------------------------|-----------------------------------------------| 
D#|-------------------------------------------------|-----------------------------------------------| 
A#|-------------------------------------------------|----------------------------------------X-X-X-X|  
F |----------------------------------------1--------|----------------------------------------X-X-X-X| 
A#|--2b3b2--0--3--2--0--2b3b2--0--3--2--0----3-0-3--|--2b3b2--0--3--2--0--2b3b2--0--3--2--0--X-X-X-X| 

Chorus (2:22) 
(Distortion) 
C |-------------------------------------------------|-----------------------------------------------| 
G |-----------------------(5)-----------------------|----------------(5)----------------------------| 
D#|------------------------5------------------------|-----------------5-5-5------5-5-5-----5--------| 
A#|--2---------------------5---------------5--5--5--|--2--------------5-5-5------5-5-5-----5-5-5-5--|  
F |--2---------------------3---------------5--5--5--|--2--------------3-3-3------3-3-3-----3-5-5-5--| 
A#|--2-------------------------------------5--5--5--|--2-------------------------------------5-5-5--| 

   Carry me through this...                           Feel no more... 
   
C |-------------------------------------------------|-----------------------------------------------| 
G |-----------------------(5)-----------------------|------------------(5)--------------------------| 
D#|------------------------5------------------------|-------------------5---------------------------| 
A#|--2---------------------5---------------5--5--5--|--2----------------5---------------X--5--X--3--| x2 
F |--2---------------------3---------------5--5--5--|--2----------------3---------------X--5--X--3--| 
A#|--2-------------------------------------5--5--5--|--2--------------------------------X--5--X--3--| 

   Bury me in this...                                 Feed the wolf...                (Fight the animal)  
   Carry me through this...                           Feel no more... 

C |-------------------------------------------------|-----------------------------------------------| 
G |-----------------------(5)-----------------------|------------------(5)--------------------------| 
D#|------------------------5------------------------|-------------------5---------------------------| 
A#|--2---------------------5---------------5--5--5--|--2----------------5---------------------------|  
F |--2---------------------3---------------5--5--5--|--2----------------3---------------------------| 
A#|--2-------------------------------------5--5--5--|--2--------------------------------------------| 

   Bury me in this...                                 Feed the wolf...  

Outro (3:12) 
(Distortion) 
C |-------------------------------------------------|-----------------------------------------------| 
G |-------------------------------------------------|-----5*----5*----5*----------------------------| 
D#|-------------------------------------------------|-----------------------------------------------| 
A#|-------------------------------------------------|--2-----2-----2-----2--------------------------| 
F |-----------------------------3-----------1-------|--2-----2-----2-----2--------------------------| 
A#|--2--0--2--3--2--0--2--0--2-----2--0--2-----3--0-|--2-----2-----2-----2--------------------------| 



************************************ 

| (n)  Ghost note 
| /    Slide up 
| b    Bend 
| *    Natural harmonic 
| h    Hammer on 
| p    Pull off 

************************************ 
    	
fixar
fixar inscrever-se

enviado porenviado por: andrsouza
cifra enviadaCorrigida por: sem correções
logo top cifrasComente
ico música do artistaMúsicas deste artista
ico curtiuCurtiu?
ico destaqueDestaque
Petaxxon Comunicação Online

Cifras.com.br - Melhor e mais completo site de cifras e tablaturas do Brasil Mais de 1 milhão de acordes de músicas cadastradas desde 2003
As informações contidas no nosso site são colaborações de seus usuários e podem conter erros, sendo assim, não nos responsabilizamos sobre nenhuma destas.

close
menos
mais
close
Cor dos acordes:

Cor da letra:

close
Alinhar acordes a direita Alinhar acordes a esquerda Alinhar acordes em baixo Alinhar acordes no topo
close
  Mostrar todos os acordes Esconder acordes muito fáceis Esconder acordes fáceis Esconder acordes intermediários
redimensionar
glossário