Cifras e Tablaturas
Briefs

Briefs

Destroy The Usa

Cifras Cancelar Versão de Impressão Print

Briefs - Destroy The Usa

Tom: A#

  • 0:00 / 0:00
  			

Tuning:Standard 
  intro (you play these power chords a couple times then just stay on the first one until the verse) 
e|-------------------------------------------------------------------------------| 
B|-------------------------------------------------------------------------------| 
G|-------------------------------------------------------------------------------| 
D|----8-----3--------------------------------------------------------------------| 
A|----8-----3--------------------------------------------------------------------| 
E|----6-----1--------------------------------------------------------------------| 
   Verse-it's pretty much the same as the intro but it slides down to those two other  
power chords at some parts 
          listen to the song and you'll see 
e|---------------------------------------------------------------------------------| 
B|---------------------------------------------------------------------------------| 
G|---------------------------------------------------------------------------------| 
D|-----8----3-----4----5-----------------------------------------------------------| 
A|-----8----3-----4----5-----------------------------------------------------------| 
E|-----6----1-----2----3-----------------------------------------------------------| 
   Chorus-Strumming pattern is fairly easy 
e|----------------------------------------------------------------------------------| 
B|----------------------------------------------------------------------------------| 
G|----------------------------------------------------------------------------------| 
D|---8----10- 13---4---6------------------------------------------------------------| 
A|---8----10--13---4---6------------------------------------------------------------| 
E|---6----9---11---2---4------------------------------------------------------------| 

That's the song it's a great song i've gotten to see them playing it live before also the solo is in A# 
pentatonic 

************************************ 

| /   slide up 
| \   slide down 
| h   hammer-on 
| p   pull-off 
| ~   vibrato 
| +   harmonic 
| x   Mute note 
| b   Bend 
| pb  Pre-bend 
| br  Bend release 
| pbr Pre-bend release 
| brb Bend release bend 

************************************ 
    	

enviado porenviado por: renejunior
cifra enviadaCorrigida por: sem correções
logo top cifrasComente
ico música do artistaMúsicas deste artista
ico curtiuCurtiu?
ico destaqueDestaque
Petaxxon Comunicação Online

Cifras.com.br - Melhor e mais completo site de cifras e tablaturas do Brasil Mais de 1 milhão de acordes de músicas cadastradas desde 2003
As informações contidas no nosso site são colaborações de seus usuários e podem conter erros, sendo assim, não nos responsabilizamos sobre nenhuma destas.

close
menos
mais
close
Cor dos acordes:

Cor da letra:

close
Alinhar acordes a direita Alinhar acordes a esquerda Alinhar acordes em baixo Alinhar acordes no topo
close
  Mostrar todos os acordes Esconder acordes muito fáceis Esconder acordes fáceis Esconder acordes intermediários
redimensionar
glossário