Cifras e Tablaturas
Bruno e Marrone

Bruno e Marrone

Choram as rosas

Ano: 2005
Album : Meu Presente É Você

Cifras Cancelar Versão de Impressão Print

Bruno e Marrone - Choram as rosas

Tom: G

  			B|-------------------------------3-------|  
G|----0-----------2------3---------------|  
 
 
D|-------5-----4----------------------|  
A|-----------------------7------------|  
 
 
B|------2-------3---------------------|  
G|-----------------------3------------| 
 
 
D|------0-0-0-0-----------------------|  
 
 
 
B|----------------------------------3-----|  
G|----0-----------2-----3--------- -------| 
 
 
D|-------5-----4----------------------|  
A|-----------------------7------------| 
 
 
G|-------3------2-------------------|  
 
 
e|--------------------------------------------------|  
B|-------------------------9------------------------| 
G|-----------10------------9--------------4---------|  
D|-----------10---------------------------4---------| 
A|--------------------------------------------------|  
E|--------------------------------------------------| 
 

    	
fixar
fixar inscrever-se

enviado porenviado por: JeanBeppu
cifra enviadaCorrigida por: sem correções
logo top cifrasComente
ico música do artistaMúsicas deste artista
ico curtiuCurtiu?
ico destaqueDestaque
Petaxxon Comunicação Online

Cifras.com.br - Melhor e mais completo site de cifras e tablaturas do Brasil Mais de 1 milhão de acordes de músicas cadastradas desde 2003
As informações contidas no nosso site são colaborações de seus usuários e podem conter erros, sendo assim, não nos responsabilizamos sobre nenhuma destas.

close
menos
mais
close
Cor dos acordes:

Cor da letra:

close
Alinhar acordes a direita Alinhar acordes a esquerda Alinhar acordes em baixo Alinhar acordes no topo
close
  Mostrar todos os acordes Esconder acordes muito fáceis Esconder acordes fáceis Esconder acordes intermediários
redimensionar
glossário