Cifras e Tablaturas
Bruno e Marrone

Bruno e Marrone

Fruto Especial

Cifras Cancelar Versão de Impressão Print

Bruno e Marrone - Fruto Especial

Tom: C

  			e|-----4---5----------|-5-5--4-4--2-0---2-4--|-4-4-2-0------------|  
B|-2-----------2------|---------------4-----0|----------4-2-0-2---|  
G|--------------------|----------------------|--------------------|  
D|--------------------|----------------------|--------------------|  
A|--------------------|----------------------|--------------------|  
E|--------------------|----------------------|--------------------| 


e|--------------------|-------------2-4------|---2-0-----0-2-0----|  
B|--------------2-----|------2-4-5-----------|--------4-----------|  
G|-------2--4---------|-2-4------------------|--------------------|  
D|--------------------|----------------------|--------------------|  
A|--------------------|----------------------|--------------------|  
E|--------------------|----------------------|--------------------| 



Contribuição: JULIO PASTORI  ([email protected]) 


    	

enviado porenviado por: juliopastori
cifra enviadaCorrigida por: sem correções
logo top cifrasComente
ico música do artistaMúsicas deste artista
ico curtiuCurtiu?
ico destaqueDestaque
Petaxxon Comunicação Online

Cifras.com.br - Melhor e mais completo site de cifras e tablaturas do Brasil Mais de 1 milhão de acordes de músicas cadastradas desde 2003
As informações contidas no nosso site são colaborações de seus usuários e podem conter erros, sendo assim, não nos responsabilizamos sobre nenhuma destas.

close
menos
mais
close
Cor dos acordes:

Cor da letra:

close
Alinhar acordes a direita Alinhar acordes a esquerda Alinhar acordes em baixo Alinhar acordes no topo
close
  Mostrar todos os acordes Esconder acordes muito fáceis Esconder acordes fáceis Esconder acordes intermediários
redimensionar
glossário