Cifras e Tablaturas
Bruno e Marrone

Bruno e Marrone

Goiás é Mais

Cifras Cancelar Versão de Impressão Print

Bruno e Marrone - Goiás é Mais

Tom:

  			Ae Galera... Sofri pra tirar esse solinho mas valeu a pena...... SALVE O GRANDE MARCOS!!! 

              Solo tirado por Rodrigo Sant'Ana   -   [email protected]   

                
               e------5--5--5----4--4----2--2--2---------------------------------------------------------- 
               B	-----7--7--7----5--5----3--3--3----5--5----3--3--3----2--2-------------5----3----2---- 
               G	------------------------------------- 6--6----4--4--4----2--2----4--4----6----4----2---- 
               D	-------------------------------------------------------------------6--6-------------------- 
               A-------------------------------------------------------------------------------------------- 
               E	-------------------------------------------------------------------------------------------- 


               e------5--5--5----4--4----2--2--2---------------------------------------------------------- 
               B	-----7--7--7----5--5----3--3--3----5--5----3--3--3----2--2-------------5----3----2--2- 
               G	------------------------------------- 6--6----4--4--4----2--2----4--4----6----4----2--2- 
               D	-------------------------------------------------------------------6--6-------------------- 
               A------------------------------------------------------------------------------------------0- 
               E	-------------------------------------------------------------------------------------------- 


               e------------------------------------------------------------------------------------------- 
               B	------------------------------------------------------------------------------------------ 
               G	------------------------------------------------------------------------------------------ 
               D	----------------------------------------------------------2--2--2--2--2------------------ 
               A---------------------2------------------------------2---- 0--0--0--0--0------------------ 
               E	-----5--4--2--0--4---4--5--5------5--4--2--0--4---4----------------------------------- 

    	
fixar
fixar inscrever-se

enviado porenviado por: rodrigomsq
cifra enviadaCorrigida por: sem correções
logo top cifrasComente
ico música do artistaMúsicas deste artista
ico curtiuCurtiu?
ico destaqueDestaque
Petaxxon Comunicação Online

Cifras.com.br - Melhor e mais completo site de cifras e tablaturas do Brasil Mais de 1 milhão de acordes de músicas cadastradas desde 2003
As informações contidas no nosso site são colaborações de seus usuários e podem conter erros, sendo assim, não nos responsabilizamos sobre nenhuma destas.

close
menos
mais
close
Cor dos acordes:

Cor da letra:

close
Alinhar acordes a direita Alinhar acordes a esquerda Alinhar acordes em baixo Alinhar acordes no topo
close
  Mostrar todos os acordes Esconder acordes muito fáceis Esconder acordes fáceis Esconder acordes intermediários
redimensionar
glossário