Cifras e Tablaturas
Bruno e Marrone

Bruno e Marrone

Ligação urbana

Ano: 2004
Album : Ao Vivo

Cifras Cancelar Versão de Impressão Print

Bruno e Marrone - Ligação urbana

Tom: G

  			Introdução:  
 
  
    A                  C#m          F#m          F 
 
     {--4x--}       {--4x--}     {--4x--}     {--4x--} 
E|---9-10-12--------------------------------------------| 
B|-------------------9-10-12------7-9-10-------6-8-10---| 
G|------------------------------------------------------| 
D|------------------------------------------------------| 
A|------------------------------------------------------| 
E|------------------------------------------------------| 
 
       A              C#m          F#m           D 
 
     {--4x--}       {--4x--}     {--3x--}          
E|---9-10-12--------------------------------------------| 
B|-------------------9-10-12------7-9-10---------10-----| 
G|------------------------------------------7/9---------| 
D|------------------------------------------------------| 
A|------------------------------------------------------| 
E|------------------------------------------------------| 
 
 
Tablatura transcrita por Sérgio Partinski 
 

    	
fixar
fixar inscrever-se

enviado porenviado por: SergioPartinski
cifra enviadaCorrigida por: sem correções
logo top cifrasComente
ico música do artistaMúsicas deste artista
ico curtiuCurtiu?
ico destaqueDestaque
Petaxxon Comunicação Online

Cifras.com.br - Melhor e mais completo site de cifras e tablaturas do Brasil Mais de 1 milhão de acordes de músicas cadastradas desde 2003
As informações contidas no nosso site são colaborações de seus usuários e podem conter erros, sendo assim, não nos responsabilizamos sobre nenhuma destas.

close
menos
mais
close
Cor dos acordes:

Cor da letra:

close
Alinhar acordes a direita Alinhar acordes a esquerda Alinhar acordes em baixo Alinhar acordes no topo
close
  Mostrar todos os acordes Esconder acordes muito fáceis Esconder acordes fáceis Esconder acordes intermediários
redimensionar
glossário