Cifras e Tablaturas
Bruno e Marrone

Bruno e Marrone

Marianne

Compositor : (Fabianno / Leo bary)

Cifras Cancelar Versão de Impressão Print

Bruno e Marrone - Marianne

Tom: C

  			E-------------------------8------------------- 
B-------------------4-5>8--------------------- 
G--------------------------------------------- 
D--------------------------------------------- 
A--------------------------------------------- 
E--------------------------------------------- 
Repete essa primeira parte 3 vezes.. 
 
E-------------------------8------------------- 
B-------------------4-5>8--------------------- 
G--------------------------------------------- 
D--------------------------------------------- 
A--------------------------------------------- 
E--------------------------------------------- 
 
E-------------------------8>10>8>10>8--------- 
B-------------------4-5>8--------------------- 
G--------------------------------------------- 
D--------------------------------------------- 
A--------------------------------------------- 
E--------------------------------------------- 
 
E-------------------------8------------------- 
B-------------------4-5>8--------------------- 
G--------------------------------------------- 
D--------------------------------------------- 
A--------------------------------------------- 
E--------------------------------------------- 
 

    	
fixar
fixar inscrever-se

enviado porenviado por: fernandohcarmo
cifra enviadaCorrigida por: sem correções
logo top cifrasComente
ico música do artistaMúsicas deste artista
ico curtiuCurtiu?
ico destaqueDestaque
Petaxxon Comunicação Online

Cifras.com.br - Melhor e mais completo site de cifras e tablaturas do Brasil Mais de 1 milhão de acordes de músicas cadastradas desde 2003
As informações contidas no nosso site são colaborações de seus usuários e podem conter erros, sendo assim, não nos responsabilizamos sobre nenhuma destas.

close
menos
mais
close
Cor dos acordes:

Cor da letra:

close
Alinhar acordes a direita Alinhar acordes a esquerda Alinhar acordes em baixo Alinhar acordes no topo
close
  Mostrar todos os acordes Esconder acordes muito fáceis Esconder acordes fáceis Esconder acordes intermediários
redimensionar
glossário