Cifras e Tablaturas
Buck Owens

Buck Owens

Loves Gonna Live Here

Cifras Cancelar Versão de Impressão

Buck Owens - Loves Gonna Live Here

Tom:

  			Solo is 0:46 - 1:07 

e |----------|-----------------|------------------------------| 
B |----------|-------0-1-1-3-1-|------------------------------| 
G |----------|-----2-2---2-2-2-|------------------------------| 
D |----------|---2-------------|------------------------------| 
A |-0--------|-0---------------|----5-7-5-5/7-10-7\5-3-0----0-| 
D |---2-4-5b-|-----------------|-0------------------------5---| 

  
e |-------------------------------|------------------------| 
B |-------------------------------|------------------------| 
G |---------5-7b9--7b9--7--5------|------------------------| 
D |---7-7---------------------7-5-|------------5-----------| 
A |-0-----------------------------|-5/7-7-5-7----7-5-3-0---| 
D |-------------------------------|----------------------5-| 

    
e |--------------------|------------------------| 
B |--------------------|------------------------| 
G |------------2-2-2-2-|------------------------| 
D |---------2----------|------------------------| 
A |-0-0-3/4------------|---------0-5-2b-0-3-0-2-| 
D |--------------------|-0-0-2h4----------------| 


e |---------------------------|------------------| 
B |---------------------------|------------------| 
G |-----------2---------------|----2------0------| 
D |-------2-2---5----2-0-2----|-----0h2----------| 
A |-0-3h4------------------3b-|-0------------0---| 
D |---------------------------|------------------| 

*********************************************************** 
Tablature Legend 
*********************************************************** 
| h   - hammer-on 
| p   - pull-off 
| b   - bend  (b not followed by a fret number is a quarter tone) 
| /\  - slide up or down 
    	
fixar
fixar inscrever-se

enviado porenviado por: terr_schmitz
cifra enviadaCorrigida por: sem correções
logo top cifrasComente
ico música do artistaMúsicas deste artista
ico curtiuCurtiu?
ico destaqueDestaque
Petaxxon Comunicação Online

Cifras.com.br - Melhor e mais completo site de cifras e tablaturas do Brasil Mais de 1 milhão de acordes de músicas cadastradas desde 2003
As informações contidas no nosso site são colaborações de seus usuários e podem conter erros, sendo assim, não nos responsabilizamos sobre nenhuma destas.

close
menos
mais
close
Cor dos acordes:

Cor da letra:

close
Alinhar acordes a direita Alinhar acordes a esquerda Alinhar acordes em baixo Alinhar acordes no topo
close
  Mostrar todos os acordes Esconder acordes muito fáceis Esconder acordes fáceis Esconder acordes intermediários
redimensionar
glossário