Cifras e Tablaturas
Buckethead

Buckethead

The Spirit Winds

Cifras Cancelar Versão de Impressão
cifras

Buckethead - The Spirit Winds

fixar na tela  
Exibindo: vídeo-aula ver clipes redimensionar
  
 Intro 

eb|--------|--------|--------|--------|--------|--------|--------|--------|--------| 
Bb|--------|--------|--------|--------|--------|--------|--------|--------|--------| 
Gb|--------|--------|--------|--------|--------|--------|--------|--------|--------| 
Db|--------|-0------|--------|-2------|-4------|-2------|-0------|--------|--------| 
Ab|-2------|--------|-4------|--------|--------|--------|--------|-4------|-2------| 
Eb|--------|--------|--------|--------|--------|--------|--------|--------|--------| 

eb|------------------------------------|------------------|------------------| 
Bb|------------------------------------|------------------|------------------| 
Gb|------------------------------------|------------------|------------------| 
Db|------0-------0-------0-------0-----|-----0-------0----|-----0-----0------| x7 
Ab|----9---9---9---9---9---9---9---9---|---0---0---0---0--|---0-----0---0----| 
Eb|--7-------7-------7-------7-------7-|-5-------5--------|-2-----3-------2--| 

eb|------------------------------------|------------------|------------------| 
Bb|------------------------------------|------------------|------------------| 
Gb|------------------------------------|------------------|------------------| 
Db|------0-------0-------0-------0-----|-----0-------0----|-----0------------|  
Ab|----9---9---9---9---9---9---9---9---|---0---0---0---0--|---0--------------| 
Eb|--7-------7-------7-------7-------7-|-5-------5--------|-2-----3--------5-| 

eb|--------------------------------------------------|---------------------| 
Bb|--------------------------------------------------|---------------------| 
Gb|--------------------------------------------------|---------------------| 
Db|------9-------9-------9-------9-------9-------9---|------7------7-------| x4 
Ab|----9---9---9---9---9---9---9---9---9---9---9---9-|----9------7---------| 
Eb|--7-------7-------7-------7-------7-------7-------|-10------9------10-9-| 

eb|--------------------------------------------------|---------------------| 
Bb|--------------------------------------------------|---------------------| 
Gb|--------------------------------------------------|---------------------| 
Db|------9-------9-------9-------9-------9-------9---|------7------7-------|  
Ab|----9---9---9---9---9---9---9---9---X---9---X---9-|----9------7---------| 
Eb|--7-------7-------X-------X-------X-------X-------|-10------9------10-9-| 

eb|--------------------------------------------------|----------------------| 
Bb|--------------------------------------------------|----------------------| 
Gb|--------------------------------------------------|----------------------| 
Db|------9-------9-------9-------9-------9-------9---|------7------7--------|  
Ab|----9---9---9---9---9---9---9---9---9---9---9---9-|----9------7----------| 
Eb|--7-------7-------7-------7-------7-------7-------|-10------9------10--7-| 
    ------- palm  mute  this  whole  section ------- 

  
   02:01 

eb|-----10-----10-----10-----10-----10-|-------12-----12-----12-----12-----12--| 
Bb|------------------------------------|---------------------------------------| 
Gb|--11-----11-----11-----11-----11----|-11/12-----12-----12-----12-----12-----| 
Db|------------------------------------|---------------------------------------| 
Ab|------------------------------------|---------------------------------------| 
Eb|------------------------------------|---------------------------------------| 

eb|-------14-----14-----14-----14-|-------15-----15-----15-|----14-----14-----14-----14--| 
Bb|-------------------------------|------------------------|-----------------------------| 
Gb|-12/14-----14-----14-----14----|-14/16-----16-----16----|-16-----16-----16-----16-----| 
Db|-------------------------------|------------------------|-----------------------------| 
Ab|-------------------------------|------------------------|-----------------------------| 
Eb|-------------------------------|------------------------|-----------------------------| 

eb|--------------|--------------|--------------|---------------------------------| 
Bb|----15-----15-|----14-----14-|----10-----10-|---7----7----7----7---7----------| 
Gb|-16-----16----|-16-----16----|\11-----11----|\7----7----7----7---7---7---7----| 
Db|--------------|--------------|--------------|--------------------------9------| 
Ab|--------------|--------------|--------------|---------------------------------| 
Eb|--------------|--------------|--------------|---------------------------------| 

eb|--------------------------------------------------------------| 
Bb|--------------------------------------------------------------| 
Gb|---7---6---6---7---7---7--7----7--6----6----------------------| 
Db|-9---9---9---9---9---9----9--9----9--9---9---9---9---9---9----| 
Ab|-------------------------------------------9---9---9---9---9--| 
Eb|--------------------------------------------------------------| 

eb|-----------------------------------|-----------------------------------| 
Bb|-----------------------------------|-----------------------------------| 
Gb|-7---7--6----6---------------------|-7---7--6----6---------------------| 
Db|---9----9--9-----9---9---9---9---9-|---9----9--9-----9---9---9---9---9-| 
Ab|---------------9---9---9---9---9---|---------------9---9---9---9---9---| 
Eb|-----------------------------------|-----------------------------------| 

eb|--------------------------------------|--------------------------------------------------| 
Bb|--------------------------------------|--------------------------------------------------| 
Gb|-7---7--6-----------------------------|-7---7--6-----------------------------------------| 
Db|---9----9--9--9---9---9---9---9---9---|---9----9--9-9---9---9---9---9--9--9--9--9--9--9--| 
Ab|----------------9---9---9---9---9---9-|---------------9---9---9---9----9--9--9--9--9--9--| 
Eb|--------------------------------------|--------------------------------------------------| 
    ------------- palm   mute   these   two   whole   sections --------------------------- 


eb|----------------------------------------------------| 
Bb|----------------------------------------------------| 
Gb|-6-6-6-7-7-7-7-7--7-6-6-7-7-7-7-7--7-6-6-7-7-7-7-7--| 
Db|-9-9-9-9-9-9-9-9--9-9-9-9-9-9-9-9--9-9-9-9-9-9-9-9--| 
Ab|----------------------------------------------------| 
Eb|----------------------------------------------------| 

eb|----------------------------------------------------| 
Bb|----------------------------------------------------| 
Gb|-7-6-6-7-7-7-7-7--7-6-6-7-7-7-7-7--7-6-6-7-7-7-7-7--| 
Db|-9-9-9-9-9-9-9-9--9-9-9-9-9-9-9-9--9-9-9-9-9-9-9-9--| 
Ab|----------------------------------------------------| 
Eb|----------------------------------------------------| 


   02:51 
eb|--------------------------|----------------------------------| 
Bb|--------------------------|(7-7-7-7-7-7-7-7-7-7-7-7-7-7-7-7)-| 
Gb|--7-7-7-7-7-7-7-7-7-7-7-7-|-6-6-6-6-6-6-6-6-6-6-6-6-6-6-6-6--| 
Db|--9-9-9-9-9-9-9-9-9-9-9-9-|-7-7-7-7-7-7-7-7-7-7-7-7-7-7-7-7--| 
Ab|--------------------------|----------------------------------| 
Eb|--------------------------|----------------------------------| 
   PM----------------------|  PM-------------------------------| 

eb|-----------------------------------|--------------------------------------| 
Bb|-(5-5-5-5-5-5-5-5-5-5-5-5-5-5-5-5)-|(7-7-7-7-7-7-7-7-7-7-7-7--------------| 
Gb|--4-4-4-4-4-4-4-4-4-4-4-4-4-4-4-4--|-6-6-6-6-6-6-6-6-6-6-6-6--9--9--9--9--| 
Db|--5-5-5-5-5-5-5-5-5-5-5-5-5-5-5-5--|-7-7-7-7-7-7-7-7-7-7-7-7--11-11-11-11-| 
Ab|-----------------------------------|--------------------------------------| 
Eb|-----------------------------------|--------------------------------------| 
   PM------------------------------|   PM-----------------------------------| 

eb|----------------------------------|---------------------------------| 
Bb|----------------------------------|---------------------------------| 
Gb|--7-7-7-7-7-7-7-7-7-7-7-7-7-7-7-7-|-6-6-6-6-6-6-6-6-6-6-6-6-6-6-6-6-| 
Db|--9-9-9-9-9-9-9-9-9-9-9-9-9-9-9-9-|-7-7-7-7-7-7-7-7-7-7-7-7-7-7-7-7-| 
Ab|----------------------------------|---------------------------------| 
Eb|----------------------------------|---------------------------------| 
   PM-------------------------------|  PM------------------------------| 

eb|-------------------------------------------------------------------| 
Bb|-------------------------------------------------------------------| 
Gb|--4-4-4-4-4-4-4-4-4-4--4------------------------9------------------| 
Db|--5-5-5-5-5-5-5-5-5-5--5---------------------------9---------------| 
Ab|-------------------------------------------------------------------| 
Eb|-------------------------------------------------------------------| 
   PM-------------------| ^ let ring 


   03:19 
eb|----------|---------|--------|-------| 
Bb|----3p2---|---3p2---|---3p2--|---3---| 
Gb|--4-------|-4-------|-4------|-4-----| x2 
Db|--------4-|-------4-|------4-|-----4-| 
Ab|----------|---------|--------|-------| 
Eb|----------|---------|--------|-------| 

eb|----------|---------|---------------| 
Bb|----3p2---|---3p2---|---3p2--2------| 
Gb|--4-------|-4-------|-4-------------|  
Db|--------4-|-------4-|------4--------| 
Ab|----------|---------|---------------| 
Eb|----------|---------|---------------| 

eb|----------|---------|---------------| 
Bb|----3p2---|---3p2---|---3p2---------| 
Gb|--4-------|-4-------|-4-------------|  
Db|--------4-|-------4-|---------------| 
Ab|----------|---------|---------------| 
Eb|----------|---------|---------------| 


   03:32 
eb|--2---2---2---3---|0---0---0---2---|----------------|-----------------| 
Bb|------------------|----------------|3---3---3---2---|0---0---0--------| 
Gb|----4---4---4---4-|--4---4---4---4-|--4---4---4---4-|--4---4---4---4--| 
Db|------------------|----------------|----------------|-----------------| 
Ab|------------------|----------------|----------------|-----------------| 
Eb|------------------|----------------|----------------|-----------------| 

eb|--2---2---2---3---|0---0---0---2---|----------------|-----------------| 
Bb|------------------|----------------|3---3---2-------|0---0---0--------| 
Gb|----4---4---4---4-|--4---4---4---4-|--4---4---4---4-|--4---4---4------| 
Db|------------------|----------------|------------4---|-----------------| 
Ab|------------------|----------------|----------------|-----------------| 
Eb|------------------|----------------|----------------|-----------------| 

eb|----------------------------------------------| 
Bb|--0-0-0-0-0-0-0-0-0-0-0-0-0-0-0-0-0-0-0-0-0---| 
Gb|--4-4-4-4-4-2-2-4-4-4-4-4-4-4-4-4-4-4-4-4-4---| 
Db|----------------------------------------------| 
Ab|----------------------------------------------| 
Eb|----------------------------------------------| 
   PM-----------------------------------------| 

   03:50                                                                          
eb|--10-10-10-10-10-10-10-10-|-9--9--9--9--9--9--9--9--|-5-5-5-|-3-3-3-|-2-2-2-|-----------| 
Bb|--12-12-12-12-12-12-12-12-|-10-10-10-10-10-10-10-10-|-7-7-7-|-5-5-5-|-3-3-3-|-2-2-2-2/--| 
Gb|--------------------------|-------------------------|-------|-------|-------|-2-2-2-2/--| 
Db|--------------------------|-------------------------|-------|-------|-------|-----------| 
Ab|--------------------------|-------------------------|-------|-------|-------|-----------| 
Eb|--------------------------|-------------------------|-------|-------|-------|-----------| 
   PM-----------------------| PM----------------------|  -PM--   -PM--   -PM--  PM------|    

                                                                                            
eb|--10-10-10-10-10-10-10-10-|-9--9--9--9--9--9--9--9--|-5-5-5-5-5-5-5-5-|-2-2-2-|-----------| 
Bb|--12-12-12-12-12-12-12-12-|-10-10-10-10-10-10-10-10-|-7-7-7-7-7-7-7-7-|-3-3-3-|-2-2-2-2/--| 
Gb|--------------------------|-------------------------|-----------------|-------|-2-2-2-2/--| x2 
Db|--------------------------|-------------------------|-----------------|-------|-----------| 
Ab|--------------------------|-------------------------|-----------------|-------|-----------| 
Eb|--------------------------|-------------------------|-----------------|-------|-----------| 
   PM-----------------------| PM----------------------| PM--------------|  -PM--  PM-------|  


eb|--10-10-10-10-10-10-10-10-|-9--9--9--9--9--9--9--9--|-5-5-5-5-5-5-5-5-|-2-2-2-|-----------| 
Bb|--12-12-12-12-12-12-12-12-|-10-10-10-10-10-10-10-10-|-7-7-7-7-7-7-7-7-|-3-3-3-|-2-2-2-2-2-| 
Gb|--------------------------|-------------------------|-----------------|-------|-2-2-2-2-2-| 
Db|--------------------------|-------------------------|-----------------|-------|-----------| 
Ab|--------------------------|-------------------------|-----------------|-------|-----------| 
Eb|--------------------------|-------------------------|-----------------|-------|-----------| 
   PM-----------------------| PM----------------------| PM--------------|  -PM--  PM--------|  


   04:16 
eb|----------------------------------|-----------------------------------| 
Bb|----3-----2-----0-----0-----0-----|-----3-----2-----0-----0-----0-----| 
Gb|------4-----4-----4-----4-----4---|-------4-----4-----4-----4-----4---| 
Db|--------4-----4-----4-----4-----4-|---------4-----4-----4-----4-----4-| 
Ab|--2-------2-----2-----2-----2-----|---2-------2-----2-----2-----2-----| 
Eb|----------------------------------|-----------------------------------| 

eb|----------------------------------|-----------------------------------| 
Bb|----3-----2-----0-----0-----0-----|-----------------------------------| 
Gb|------4-----4-----4-----4-----4---|-----------------------------------| 
Db|--------4-----4-----4-----4-----4-|-----------------------------------| 
Ab|--0-------0-----0-----0-----0-----|-----------------------------------| 
Eb|----------------------------------|-----------------------------------| 


  
                          DRAMATIC DRUM INTERLUDE 



  Solo 
   05:09 
eb|---------------------------------------------|------------------------------| 
Bb|---------------------------------------------|------------------------------| 
Gb|--7~---------6------------------7h9/11--p9(\)|7----------6---7--------------| 
Db|----------------7----------------------------|------------------------------| 
Ab|-------------------7h9~----------------------|------------------------------| 
Eb|---------------------------------------------|------------------------------| 

eb|---------------------------------------------|------------------9h10p9------| 
Bb|---------------------------------------------|------------10-----------10---| 
Gb|--7~------\6--------------------------7~~----|----9/11--------------------9-| 
Db|----------------7---------------7h9p7--------|------------------------------| 
Ab|-------------------7h9~----------------------|------------------------------| 
Eb|---------------------------------------------|------------------------------| 

eb|-----------14--14----------12p10--10\9--9\5--|--------------5---------------------| 
Bb|-------12------------------------------------|5-/7--------------------------------| 
Gb|-11------------------------------------------|----------7--7-7---(7)----6h7p6-----| 
Db|---------------------------------------------|-------------------------------h7/9-| 
Ab|---------------------------------------------|------------------------------------| 
Eb|---------------------------------------------|------------------------------------| 

eb|---------------------------7-9------10p9-----|-------10---------------------------| 
Bb|-------7--7-----\--------7-------------------|----------10------------------------| 
Gb|----7-----------\----------------------------|-----------------9--9--\7---6-6---7/| 
Db|-9-------------------------------------------|------------------------------------| 
Ab|---------------------------------------------|------------------------------------| 
Eb|---------------------------------------------|------------------------------------| 

eb|---------------------------------------------------------------|----------------------------------| 
Bb|---------12----12h14--14---15-15---14-14---12-12---14-14-------|---10--------------------------12-| 
Gb|-/11--------11--------------------------------------------11---|-----------------------------11---| 
Db|---------------------------------------------------------------|-----12-----11-11-11-/12----------| 
Ab|---------------------------------------------------------------|----------------------------------| 
Eb|---------------------------------------------------------------|----------------------------------| 

eb|------------------------------------------|--------------------------------------------| 
Bb|-14~---15-/17---19----------15--14h15p14--|--------------------------------------------| 
Gb|------------------------------------------|14----16-16---------------------------------| 
Db|------------------------------------------|--------------14-(14)-------12--12-12-11-11-| 
Ab|------------------------------------------|--------------------------------------------| 
Eb|------------------------------------------|--------------------------------------------| 

   06:28 
eb|-------------------------------------------------------------------------------------------------| 
Bb|-------------------------------------------------------------------------------------------------| 
Gb|----------------------------------------------------------------------------------------------12-| cont. 
Db|-12-12-11-11--12-12-11-11--12-12-11-11--12-12-11-11--12-12-11-11--12-12-11-11--12-12-11---11-----| in next 
Ab|-------------------------------------------------------------------------------------------------| phrase 
Eb|-------------------------------------------------------------------------------------------------| 

eb|---------------------------------------------------------| 
Bb|--------------------------------19-------22--------------| 
Gb|-11h12p11----------------(19)19----19-18----18hbr-----16-| 
Db|---------h12-14/16----/21--------------------------------| 
Ab|---------------------------------------------------------| 
Eb|---------------------------------------------------------| 

   06:41 
eb|------------------------------------------------------|10--9\7------------14--12------\-| 
Bb|------------------------------------------------------|---------10/12-------------------| 
Gb|-16~------gp14\9---7---6--hbr-hbr-hbr---------7h9/11--|---------------------------------| 
Db|--------------------------------------9--9------------|---------------------------------| 
Ab|------------------------------------------------------|---------------------------------| 
Eb|------------------------------------------------------|---------------------------------| 

   06:54 
           * staccato                                         
eb|--------10--------------------10\9-------------10p9----------------12---| 
Bb|------------12--(10)-----12--------12--------------h12---10----12-------| 
Gb|--------------11---11-11---------------11-(11)--------h11----11--11-----| cont. 
Db|------------------------------------------------------------------------| in next 
Ab|------------------------------------------------------------------------| phrase 
Eb|------------------------------------------------------------------------| 

                                 * staccato 
eb|---------------------------------10p9------------------| 
Bb|----15p14p12-----12------------------h12----10h12--12--| 
Gb|------------h14-------11---11-11--------11-------11----| 
Db|-------------------------------------------------------| 
Ab|-------------------------------------------------------| 
Eb|-------------------------------------------------------| 


   07:07 
eb|-------10p9--------------------10p9--------------(12)| cont. 
Bb|-----------12-10---12--------------12---10h12--------| in next 
Gb|---11-------------------11-------------------h11-----| phrase 
Db|-----------------------------------------------------| 
Ab|-----------------------------------------------------| 
Eb|-----------------------------------------------------| 

eb|(12)------------------------------------------------------------| 
Bb|-----15-15-15-15-14-14-14-14-14-14-14--15-15-14-14--15-15-14-14-| cont. 
Gb|----------------------------------------------------------------| in next 
Db|----------------------------------------------------------------| phrase 
Ab|----------------------------------------------------------------| 
Eb|----------------------------------------------------------------| 

eb|--------------------------------| 
Bb|-15-15-14-14--15-15-14-14-14-14-| 
Gb|--------------------------------| 
Db|--------------------------------| 
Ab|--------------------------------| 
Eb|--------------------------------| 

   07:20 
eb|----------------------------------------------------|----------------------| 
Bb|-14-12-12-12-12~~-----------------------------------|----------------------| 
Gb|--------------------------------------------------7-|-----9/11~------------| 
Db|------------------------------------------------9---|----------------------| 
Ab|----------------------------------------------9-----|----------------------| 
Eb|----------------------------------------------------|----------------------| 


   07:34 
eb|--------------------------------------------------------------| 
Bb|---17p15-15-15~---14-14-14--15----17p15-15-15~---14-14-14-/15-| cont. 
Gb|--------------------------------------------------------------| in next 
Db|--------------------------------------------------------------| phrase 
Ab|--------------------------------------------------------------| 
Eb|--------------------------------------------------------------| 

eb|--------------------------------------------------------------| 
Bb|-17p15-15-15~---14-14-14--15----17p15-15-15~---14~-------15---| 
Gb|--------------------------------------------------------------| 
Db|--------------------------------------------------------------| 
Ab|--------------------------------------------------------------| 
Eb|--------------------------------------------------------------| 


   07:47 
eb|--------------------------------------------------------------| 
Bb|-17p15-15-15~--\14~-------15----17p15-15-15~--\14~------/15---| cont. 
Gb|--------------------------------------------------------------| in next 
Db|--------------------------------------------------------------| phrase 
Ab|--------------------------------------------------------------| 
Eb|--------------------------------------------------------------| 

eb|---------------------------------------------------| 
Bb|-17p15-15-15~--\14~---15----17---/19~--------------| 
Gb|---------------------------------------------------| 
Db|---------------------------------------------------| 
Ab|---------------------------------------------------| 
Eb|---------------------------------------------------| 


   08:00 
eb|--19--------------------------------19-------------|-----------------------------| 
Bb|------17--19----------------------------17--19-----|-----------------------------| 
Gb|--------------19--18--hbr~----------------------19-|-18---brbrbr----16p14-16~~---| 
Db|---------------------------------------------------|-----------------------------| 
Ab|---------------------------------------------------|-----------------------------| 
Eb|---------------------------------------------------|-----------------------------| 


   08:13 
eb|--19----------------------------------------------------------| 
Bb|------17--19--------------------------------------------------| 
Gb|--------------19--18---hbr~~---------------14--g14h16--16--p14| cont. 
Db|----------------------------------------16--------------------| in next 
Ab|--------------------------------------------------------------| phrase 
Eb|--------------------------------------------------------------| 

eb|----------------------------------------------------| 
Bb|-------------------------------------------------10-| 
Gb|----------------------------------------------------| 
Db|g16\14-\12-\11---9~~--------\----9-12\11-12\11-9----| 
Ab|-------------------------------9--------------------| 
Eb|----------------------------------------------------| 

  
   08:26 
eb|---------------------------------------------------------------| 
Bb|----------------------12---14---15p14---------------------14---| 
Gb|--11~--------------11------------------14----------------------| 
Db|--------------9-12-------------------16-------------14/16---16-| cont. 
Ab|--------------------------------------------16-/17-------------| in next 
Eb|---------------------------------------------------------------| phrase 

eb|---------------14----------------------------------------------| 
Bb|-14h15p14--------14--------------------------------------7-----| 
Gb|----------16----------14---------------------------(7)(7)------| 
Db|------------------------14--\12-11---------h7-g7/9-------------| 
Ab|-------------------------------------12-9----------------------| 
Eb|---------------------------------------------------------------| 


   08:39 
eb|---------------------10\9-----------------|------5-------------------------------------| 
Bb|-------------------------10---------------|---------7----------------------------------| 
Gb|----------11\------11------11--------7\6/7\6/7\6---------------------------------------| 
Db|--9---------\-----------------------------|-----------------7---7/9~------9h11--11h12--| 
Ab|------------------------------------------|------------------h9------------------------| 
Eb|------------------------------------------|--------------------------------------------| 


   08:53 
eb|------------------------------------------|---------------------------------| 
Bb|-----------14--15-/17---------------------|---------------------------------| 
Gb|--14------------------------------------18|--19-18------------14----14-16---| 
Db|-------16--------------------------19-----|----------19--16-----------------| 
Ab|---------------------------16--17---------|---------------------------------| 
Eb|------------------------------------------|---------------------------------| 


   09:06                   * staccato 
eb|------------------------------------------------------|----------------------------------------------| 
Bb|--------------14--12---12-----------------14-h15--14--|--------------14------------------------------| 
Gb|---------14--------------------------14---------------|---------14-------14----------------------14--| 
Db|-11--12----------------------11--12-------------------|-11--12----------------14--16-----------16----| 
Ab|------------------------------------------------------|--------------------------------17-17---------| 
Eb|------------------------------------------------------|----------------------------------------------| 


   09:19 
eb|-------------------------------------------------------------------| 
Bb|-------------------------------------------------------------------| 
Gb|--16----16----16----16----16----16----16----16----16----16---------| cont. 
Db|----16----16----16----16----16----16----16----16----16----16-------| in next 
Ab|-------------------------------------------------------------------| phrase 
Eb|-------------------------------------------------------------------| 

eb|-------------------------------------------------------------| 
Bb|---------------------------------------------12---14--15-/17-| 
Gb|-----16----16----16----16----16------------11--11------------| 
Db|-16----16----16----16----16----16-\(11)----------------------| 
Ab|-------------------------------------------------------------| 
Eb|-------------------------------------------------------------| 


   09:32 
eb|-------------------------------------------------|--------------------------------------------| 
Bb|----19-------------------------------------------|-----------------------------------------12-| 
Gb|------19-\18\16----------------------------------|---------------------------------11----11---| 
Db|-----------------16-19---------------------------|---------------------------12--14-----------| 
Ab|------------------------17-16--14-14-------------|-12--14--------------12--14-----------------| 
Eb|---------------------------------------------14--|-------12---14------------------------------| 


   09:45 
eb|-----------------------------------------------|------------------------------------------| 
Bb|---------------------12--------------------12--|----------------12--14-----15-------------| 
Gb|-14~---12(11)-11---11--11-14~---12-11~---11--11|-14~---12\11-------------------14---------| 
Db|-----------------------------------------------|-----------------------------------14-----| 
Ab|-----------------------------------------------|---------------------------------------16-| 
Eb|-----------------------------------------------|------------------------------------------| 


   09:58 
eb|---------------------------------|------------------------------------------| 
Bb|---------------------------------|------------------------------------------| 
Gb|---------------------------------|------------------------------------------| 
Db|---------------------------------|---------------------------------------12-| 
Ab|-17----16----17----\16------12---|12h14~------------------------------------| 
Eb|------------------------14-----14|------------------------------------------| 

  
   10:11 
eb|---------------------------------|------------------------------------------| 
Bb|---------------------------------|-------------------------------19---\-----| 
Gb|---------------------------------|----------(16)-------------16-------\-----| 
Db|-----11~-----12~-----11~---11----|-------------(16)-------------------------| 
Ab|------------------------------12-|-12/14----------(17)-17-------------------| 
Eb|---------------------------------|------------------------------------------| 


   10:25 
eb|-------------------------------------------------|-----------------------------------------| 
Bb|-----------------------------------15p14---------|-----------------------------------------| 
Gb|-----18-18------------------------------16--14-16|~~-------16--14\12--11-11--12-12---------| 
Db|--16----------16h19-----------------------16-----|--------------------------------------9--| 
Ab|---------------------17--------------------------|-------------------------------------9-9-| 
Eb|-------------------------------------------------|-----------------------------------------| 


   10:38 
eb|----------------------------------|-----------------------------------------| 
Bb|----------------------------------|-------7------------------------7~-------| 
Gb|--------7---7~~----------6-6-6/7--|----------------7-7-7\6--6-/7------------| 
Db|-7-(9)-----9----------------------|-----------------------------------------| 
Ab|----------------------------------|-----------------------------------------| 
Eb|----------------------------------|-----------------------------------------| 


   10:51 
eb|-------------------------------9--9-|10-------------------------------------| 
Bb|-------------------7~------10-------|----12~--------------------------------| 
Gb|-------7--\6--/7--------------------|-------------14-(14)~------------------| 
Db|------------------------------------|---------------------------------------| 
Ab|------------------------------------|---------------------------------------| 
Eb|------------------------------------|---------------------------------------| 


   11:04 
eb|--12h14~------------12h14----17--12-14----|--------------12h14----19-17---------------| 
Bb|-----------15-14--------------------------|-----15p14--------------------17-19--------| 
Gb|------------------------------------------|-------------------------------------19-18-| 
Db|------------------------------------------|-------------------------------------------| 
Ab|------------------------------------------|-------------------------------------------| 
Eb|------------------------------------------|-------------------------------------------| 


   11:17 
eb|----------------------------------------------|--------------------------------------------| 
Bb|----------------------------------------------|--------------------------------------------| 
Gb|----16-16-------------------------------------|-------------------------------6h7--7h9p7p6-| 
Db|---------------14-16--------------------0h2/4-|--hbr~~---4h5p4-5h7p5--4~-------------------| 
Ab|---------------------14~~----\\-----2-2-------|--------------------------------------------| 
Eb|----------------------------------------------|--------------------------------------------| 


   11:30 
eb|------------7-----------------------|-----------------------------| 
Bb|--------------7----------7--------14|-14----15----14----15----14--| 
Gb|-----------6-----------7-7h9/11-----|-----------------------------| 
Db|-7--h9--9---------------------------|-----------------------------| 
Ab|------------------------------------|-----------------------------| 
Eb|------------------------------------|-----------------------------| 


   11:43 
eb|--------------------------|-----------------------| 
Bb|-----15----14----15-------|14----15----14----15---| 
Gb|----------------------14--|-----------------------| 
Db|--------------------------|-----------------------| 
Ab|--------------------------|-----------------------| 
Eb|--------------------------|-----------------------| 


   11:57 
eb|--14--14--14--14-14-----------------------------|------------------------14--14| 
Bb|--------------------14-14-14\--10---------------|-14----15----14----15---------| 
Gb|-----------------------------------9-----11-----|------------------------------| 
Db|------------------------------------------------|------------------------------| 
Ab|------------------------------------------------|------------------------------| 
Eb|------------------------------------------------|------------------------------| 


   12:10 
eb|-14--------14--14-------------|------------------------------------------| 
Bb|----------------------15------|------------------------------------------| 
Gb|------------------------------|14-------------------14-------------------| 
Db|------------------------------|----14-/16---------------16---------------| 
Ab|------------------------------|------------17---------------17----\------| 
Eb|------------------------------|------------------------------------------| 


   12:23 
eb|--14--14--14--14----------------------------|----------------------------| 
Bb|----------------15--14-------1--------------|----------------------------| 
Gb|-----------------------------14--X-14-------|----------------------------| 
Db|---------------------------------------14---|16--------------------------| 
Ab|--------------------------------------------|-----17-17------------------| 
Eb|--------------------------------------------|----------------------------| 


  12:36 
eb|------------17--19----------------|----------17--19----------------------| 
Bb|--15~---------------19~-------15--|15----------------19~-----------------| 
Gb|----------------------------------|--------------------------------------| 
Db|----------------------------------|--------------------------------------| 
Ab|----------------------------------|--------------------------------------| 
Eb|----------------------------------|--------------------------------------| 


   12:49 
eb|---------------17--19-----------------------| 
Bb|--15---15~-------------19~----17--\15-\14---| cont. 
Gb|--------------------------------------------| in next 
Db|--------------------------------------------| phrase 
Ab|--------------------------------------------| 
Eb|--------------------------------------------| 

eb|------------------------------------------------------------------------------------------| 
Bb|-14h15p14---h15-p14h15p14h15p14h15p14h15p14h15p14h15p14h15p14h15p14h15p14h15p14h15-p14----| 
Gb|---------------------------------------------------------------------------------------14-| 
Db|------------------------------------------------------------------------------------------| 
Ab|------------------------------------------------------------------------------------------| 
Eb|------------------------------------------------------------------------------------------| 


   13:02 
eb|-----------------------------------|---------------------------------------------------------| 
Bb|-----------------------------------|------------------------------------------------------14-| 
Gb|-----------------------------------|---------------------------------------------------------| 
Db|-16---------------------16---14----|--------14/16~----16--14---------------------14/16-------| 
Ab|--------------------------------17-|-16-h17-----------------h17\16-h17p16-h17----------------| 
Eb|-----------------------------------|---------------------------------------------------------| 

   
   13:16 
eb|---------------------------------------------------------------------------------------------| 
Bb|--15p14h15h17-14---15p14h15h17-14---15p14h15h17-14---15p14h15h17-14---15p14-15-17-14---15p14-| cont. 
Gb|---------------------------------------------------------------------------------------------| in next 
Db|---------------------------------------------------------------------------------------------| phrase 
Ab|---------------------------------------------------------------------------------------------| 
Eb|---------------------------------------------------------------------------------------------| 

                      PM---------------------------------|        PM----------| 
eb|----------------------------------------------------------------------------------------------| 
Bb|--h15-17-14---15-14-15-17-14---15-14-15-17-14---15-14-15-17-14---15-14-15-17-14---15-14-15-17-| 
Gb|----------------------------------------------------------------------------------------------| 
Db|----------------------------------------------------------------------------------------------| 
Ab|----------------------------------------------------------------------------------------------| 
Eb|----------------------------------------------------------------------------------------------| 


   13:29 
eb|-----------------------------------------------------------------------------------| 
Bb|--14---15-14-15-17-14---15p14h15h17-14---15-14-15-17-14---15p14h15--17-------------| cont. 
Gb|-----------------------------------------------------------------------------------| in next 
Db|-----------------------------------------------------------------------------------| phrase 
Ab|-----------------------------------------------------------------------------------| 
Eb|-----------------------------------------------------------------------------------| 

eb|-----------------------------------------------------------------------------------| 
Bb|---15-14-15-17-14---15p14-15-17----------------------------------------------------| 
Gb|--------------------------------14---16--------------------------------------------| 
Db|-----------------------------------------------------------------------g14h16--16--| 
Ab|-----------------------------------------------------------------------------------| 
Eb|-----------------------------------------------------------------------------------| 


   13:42 
eb|--------------------------------------------------|-------------------------------------------------| 
Bb|--------------------------------------------------|-------------------------------------------------| 
Gb|--16------------14---------16-----------14--------|-16-----------14---------16-----------14---------| 
Db|------16--16-------------------16--16-------------|-----16--16------------------16--16--------------| 
Ab|-------------------17~----------------------17~---|-----------------17~----------------------17~----| 
Eb|--------------------------------------------------|-------------------------------------------------| 


   13:55 
eb|--------------------------------------------------|-------------------------------------------------| 
Bb|--------------------------------------------------|-------------------------------------------------| 
Gb|--16------------14---------16-----------14--------|-16-----------14---------16-----------14---------| 
Db|------16--16-------------------16--16-------------|-----16--16------------------16--16--------------| 
Ab|-------------------17~----------------------17~---|-----------------17~----------------------17~----| 
Eb|--------------------------------------------------|-------------------------------------------------| 


   14:08 
eb|------------------------------------------------|--------------------------------------------------------| 
Bb|------------------------------------------------|--------------------------------------------------------| 
Gb|-16------------14--------16-----------14--------|--------------------------------------------------------| 
Db|-----16--16------------------16--16-------------|--------------------------------------------------------| 
Ab|------------------17~---------------------17~---|----14p12---14---14-12--14---14p12--14--14p12--14--14~--| 
Eb|------------------------------------------------|---------14-----------------------14--------------------| 
                                                                 PM    PM----| 

   14:21 
eb|----------------------------------------------------|-----------------------------------------------| 
Bb|----------------------------------------------------|-----------------------------------------------| 
Gb|----------------------------------------------------|-----------------------------------------------| 
Db|--------------------------------------12~-----------|------------------------------------12h14-qbr--| 
Ab|--14p12-h14--14-12-h14~----14p12--14-----(h14)-14---|-14p12-14--14-12--14~---14p12-14~--------------| 
Eb|----------------------------------------------------|-----------------------------------------------| 


   14:34 
eb|---------------------------------------|---------------------------------------------------------| 
Bb|---------------------------------------|---------------------------------------------------------| 
Gb|---------------------------------------|---------------------------------------------------------| 
Db|----------/16--------------------------|---------------------------------------------------------| 
Ab|--------------------------14p12--12----|--14p12--14~~~~------------------------14p12-------------| 
Eb|-------------------------------14------|--------------------------------------------14-12--h14---| 


   14:48 
eb|------------------------------------------------------------------------------| 
Bb|------------------------------------------------------------------------------| 
Gb|------------------------------------------------------------------------------| 
Db|--------------12------------12---12-14/16--14h16p14\12--14h16~-----14p12------| cont. 
Ab|--14p12--14-----h14-12h14-----h14---------------------------------------14-12-| in next 
Eb|------------------------------------------------------------------------------| phrase 

eb|---------------------------------------------------------------------------| 
Bb|-------------------------------------------------------------12-12---------| 
Gb|-------------------------------------12\11-----------------11-------11-----| 
Db|--12-----------12-------------12---12------12----------(12)----------------| 
Ab|---(h14)-14~-----h14-12-14~-----h14----------h14~~-------------------------| 
Eb|---------------------------------------------------------------------------| 


   15:01 
eb|--10------9--------------9--------10------9--------------9--------| 
Bb|-----------------12------------------------------12---------------| cont. 
Gb|------11-----11------11-----11--------11-----11------11-----11----| in next 
Db|------------------------------------------------------------------| phrase 
Ab|------------------------------------------------------------------| 
Eb|------------------------------------------------------------------| 

eb|--10------9--------------9--------10------9--------------9--------| 
Bb|-----------------12-----------------------------(12)--------10----|  
Gb|------11-----11------11-----11--------11-----11------11-----------|  
Db|------------------------------------------------------------------|  
Ab|------------------------------------------------------------------| 
Eb|------------------------------------------------------------------| 


   15:14 
eb|--9-------------------------------------------------| 
Bb|-------12----10-------------------------------------| 
Gb|----------11-----------9---9hb-9-9hb-9--------------| cont. 
Db|----------------12---------------------9--9p7--7----| in next 
Ab|---------------------------------------------h9-----| phrase 
Eb|----------------------------------------------------| 
                   PM    PM----------------| softly 

eb|--------9--------------9----------(9)---10--9----10----9----| 
Bb|-------------12---------------------------------------------| 
Gb|----11-----11---11---11--11---(11)----11--11---11----11-11--| 
Db|------------------------------------------------------------| 
Ab|------------------------------------------------------------| 
Eb|------------------------------------------------------------| 
                                                      PM-----| 

   15:27 
eb|----------9----------9----9------------9----10----9-----------| 
Bb|--12-----------12--------------12----------------------12-----| cont. 
Gb|------11-----11----11---11---11----11-----11----11---11----11-| in next 
Db|--------------------------------------------------------------| phrase 
Ab|--------------------------------------------------------------| 
Eb|--------------------------------------------------------------| 

eb|---------9----------9----9------------9----10----9----10------| 
Bb|-12-----------12--------------12------------------------------| 
Gb|-----11-----11----11---11---11----11-----11----11---11----11--| 
Db|--------------------------------------------------------------| 
Ab|--------------------------------------------------------------| 
Eb|--------------------------------------------------------------| 


   15:40 
eb|----------------------------------------|----------------------------------| 
Bb|-12-------------------------------------|----------------------------------| 
Gb|-----11-(11)~~------------\9---\7--\6---|-6---7--g7/11------------------11-| 
Db|----------------------------------------|----------------------------------| 
Ab|----------------------------------------|----------------------------------| 
Eb|----------------------------------------|----------------------------------| 


   15:53 
eb|-----------------------------------|---------------------------------------| 
Bb|-----------------------------------|---------------------------------------| 
Gb|--11~~~~-----------------11--\9--7-|-7--9--g9/11~--------------------------| 
Db|-----------------------------------|---------------------------------------| 
Ab|-----------------------------------|---------------------------------------| 
Eb|-----------------------------------|---------------------------------------| 


   16:06 
eb|--14h15p14---------17--17---15--14-----------|-14h15p14---------17--17------15---14---| 
Bb|-------------------------------------17---17-|----------------------------------------| 
Gb|----------16---------------------------------|---------16-----------------------------| 
Db|---------------------------------------------|----------------------------------------| 
Ab|---------------------------------------------|----------------------------------------| 
Eb|---------------------------------------------|----------------------------------------| 


   16:20 
eb|--14h15p14--------------------14h15p14-------|-14h15p14---------17-17--15--14---------| 
Bb|---------------------------------------------|----------------------------------------| 
Gb|----------16--16~---------------------16-----|---------16--------------------------16-| 
Db|---------------------------------------------|----------------------------------------| 
Ab|---------------------------------------------|----------------------------------------| 
Eb|---------------------------------------------|----------------------------------------| 


   16:33 
eb|--14h15p14--------------------------------------|-14h15p14------------------17---15-14-| 
Bb|--------------------------14h15p14--------------|-----------------14-15----------------| 
Gb|----------16---16-16------------------14----(16)|---------16---16----------------------| 
Db|------------------------------------------------|--------------------------------------| 
Ab|------------------------------------------------|--------------------------------------| 
Eb|------------------------------------------------|--------------------------------------| 


   16:46                      (semi-mute   all   these    notes) 
eb|--14h15p14------------------------------------------------------| 
Bb|----------------------------------------------------------------| cont. 
Gb|----------16--------16------16-16-16-16-16-16-16-16-16-16-16\---| in next 
Db|----------------------------------------------------------------| phrase 
Ab|----------------------------------------------------------------| 
Eb|----------------------------------------------------------------| 

     (semi-mute all these notes) 
eb|----------------------------------------------------------------| 
Bb|----------------------------------------------------------------| 
Gb|------------------------------------------9/11\9----------------| 
Db|----9-9-9-9-9-9-9\7---7---9~~----9p7--7-----------12~-----------| 
Ab|--------------------9---------------h9--------------------------| 
Eb|----------------------------------------------------------------| 


   16:59                       PM                                                  PM 
eb|------------------------------------------------|---------------------------------------------| 
Bb|------------------------------------------------|---------------------------------------------| 
Gb|-------------------------------7--7h9/11p9--7---|--------------------------------7-7---7/9\7~-| 
Db|-----9--9--9p7---7--7h9~----9---h9-----------h9-|---9-9---9-9-9p7---7---9~----------h9--------| 
Ab|--------------h9--------------------------------|----------------h9---------------------------| 
Eb|------------------------------------------------|---------------------------------------------| 


   17:12 
eb|-----------------------------------------------------|----------------------------------------| 
Bb|-----------------------------------------------------|----------------------------------------| 
Gb|------7--------------------------------------7--9/11~|~~--\9-7--------------------------------| 
Db|-------h9---9-9p7---7---9~----(9)(9)(9)9~-----h9-----|------------------9-9-9~---9p7--7--h9~--| 
Ab|-----------------h9----------------------------------|------------------------------h9--------| 
Eb|-----------------------------------------------------|----------------------------------------| 


   17:25 
eb|--------------------------------------|-------------------------------------| 
Bb|--------------------------------------|-------------------------------------| 
Gb|------------------------------7---7h9~|~~~~~hbrhbrhbrhbr-/11\9-7h9p7-6------| 
Db|-----9-9-9~--------9~~----------9-----|---------------------------------h9--| 
Ab|--------------------------------------|-------------------------------------| 
Eb|--------------------------------------|-------------------------------------| 


   17:39                           PM 
eb|--------------------------------------------|---------------------------------------------10--9-----| 
Bb|--------------------------------------------|-----------------------------------------10---------10-| 
Gb|--------------------------------------------|------------7hb------------9hbrhbrhbr/11---------------| 
Db|-(9)---9p7---7--h9---------9p7--7--7h9------|-------9-7-------9--9~-(p7)----------------------------| 
Ab|----------h9------7-\5~-------h9------7-\5--|----------9--------------------------------------------| 
Eb|--------------------------------------------|7------------------------------------------------------| 


   17:52 
eb|----------14---------------------------|----14----------------------------------| 
Bb|-12~~----------14~-------15------------|--------15---14~-------15---------------| 
Gb|-----------------------------14~-------|---------------------------14--14---14--| 
Db|---------------------------------------|----------------------------------------| 
Ab|---------------------------------------|----------------------------------------| 
Eb|---------------------------------------|----------------------------------------| 


   18:05 
eb|--------14-----------------------------|----------14------------------------------| 
Bb|-12~--------15-\14--14-----15----------|-12---12------15-\14--14~------/15--15-15-| 
Gb|-------------------------------14------|------------------------------------------| 
Db|---------------------------------------|------------------------------------------| 
Ab|---------------------------------------|------------------------------------------| 
Eb|---------------------------------------|------------------------------------------| 


   18:18 
eb|-------------------------------------------------------------------------------------------| 
Bb|-15p14-15p14-15-14-15-14-15-14-15-14-15p14-15-14-15-14-15-15--14--15-15-14-14--14-15-14-15-| cont. 
Gb|-------------------------------------------------------------------------------------------| in next 
Db|-------------------------------------------------------------------------------------------| phrase 
Ab|-------------------------------------------------------------------------------------------| 
Eb|-------------------------------------------------------------------------------------------| 

eb|-------------------------------------------------------------------------------------------------| 
Bb|-15-14-15-14-15-14-15-14-15-14-15-14-15-14-15-14-15-14-15-14-15-14-15-14-15-14-15-14-15-14-15-14-| 
Gb|-------------------------------------------------------------------------------------------------| 
Db|-------------------------------------------------------------------------------------------------| 
Ab|-------------------------------------------------------------------------------------------------| 
Eb|-------------------------------------------------------------------------------------------------| 
                                                    PM--------| 

   18:31 
eb|-------------------------------------------------------------------------------------------| 
Bb|-15-14-15-14-15-14-15-14-15-14-15-14-15-14-15-14-15-14-15-14-15-14-15-14-15-14-15-14-15-14-| cont. 
Gb|-------------------------------------------------------------------------------------------| in next  
Db|-------------------------------------------------------------------------------------------| phrase 
Ab|-------------------------------------------------------------------------------------------| 
Eb|-------------------------------------------------------------------------------------------| 

eb|-------------------------------------------------------------------------------------------------| 
Bb|-15-14-15-14-15-14-15-14-15-14-15-14-15-14-15-14-15-14-15-14-15-14-15-14-15-14-15-14-15-14-------| 
Gb|-------------------------------------------------------------------------------------------16-14-| 
Db|-------------------------------------------------------------------------------------------------| 
Ab|-------------------------------------------------------------------------------------------------| 
Eb|-------------------------------------------------------------------------------------------------| 


   18:44 
eb|--------------------------------------------|----------------------------------------------------| 
Bb|--------------------------------------------|----------------------------------------------------| 
Gb|--16---16~~~~~~-----(16)~~~~~~~-------------|--------------------------(12-11)---12----11--------| 
Db|--------------------------------------------|----------------------(12)--------12----12----12----| 
Ab|--------------------------------------------|--14--14-14~----------------------------------------| 
Eb|--------------------------------------------|----------------------------------------------------| 


                        END OF RHYTHM SOLO/START OF OUTRO SECTION 

   18:57 
eb|--------------------------------------------------------------------------------------------------| 
Bb|--------------------------------------------------------------------------------------------------| 
Gb|--------------------------------------------------------------------------------------------------|  
Db|--12-12-12-12-12-12-12-12-12-12-12-12-12-12-12-12-12-12-12-12-12-12-12-12-12-12-12-12-11-11-11-11-| 
Ab|--9--9--9--9--9--9--9--9--9--9--9--9--9--9--9--9--9--9--9--9--9--9--9--9--9--9--9--9--7--7--7--7--|  
Eb|--------------------------------------------------------------------------------------------------| 
                  
           play the above and below sections softly and slightly muted 

eb|----------------------------------------------------------------------| 
Bb|----------------------------------------------------------------------| 
Gb|----------------------------------------------------------------------| 
Db|-9-9-9-9-9-9-9-9-9-9-9-9-9-9-9-9-9-9-9-9-9-9-9-9-9-9-9-9--11-11-11-11-| 
Ab|-5-5-5-5-5-5-5-5-5-5-5-5-5-5-5-5-5-5-5-5-5-5-5-5-5-5-5-5--7--7--7--7--| 
Eb|----------------------------------------------------------------------| 

eb|------------------------------------------------------------------------| 
Bb|------------------------------------------------------------------------| 
Gb|------------------------------------------------------------------------| 
Db|------------------------------------------------------------------------| 
Ab|--9-9-9-9-9-9-10-10-9-9-9-7-7-9-9-9--9-9-9-9-9-9-10-10-9-9-9-\7-7-7-7-\-| 
Eb|--7-7-7-7-7-7-7--7--7-7-7-7-7-7-7-7--7-7-7-7-7-7-7--7--7-7-7-\5-5-5-5-\-| 

eb|------------------------------------------------------------------| 
Bb|------------------------------------------------------------------| 
Gb|------------------------------------------------------------------| 
Db|--------------4-4-------------------------------------------------| 
Ab|--5-5-5-5-5-5-5-5-7-7-7-7-7-5-5-5-4-4-4-5-5-5-5-5-5-5-5-7-7-7-7-7-| 
Eb|--3-3-3-3-3-3-3-3-3-3-3-3-3-3-3-3-3-3-3-3-3-3-3-3-3-3-3-5-5-5-5-5-| 

    
   19:24 
eb|-------------------------------------------|---------------------------------| 
Bb|-------------------------------------------|---------------------------------| 
Gb|-------------------------------------------|---------------------------------| 
Db|-------------------------------------------|---------------------------------| 
Ab|---9-----9---7-----10---9p7----------------|-9---7---10---9------------------| 
Eb|-7-7-7-7-7-7-7-h10-7--7-7-7-7-10(10)-7-7-7-|-7-7-7-7-7--7-7-7-7-7-7-7-7--5-5-| 

eb|----------------------------------|----------------------------------| 
Bb|----------------------------------|----------------------------------| 
Gb|----------------------------------|----------------------------------| 
Db|----------------------------------|----------------------------------| 
Ab|----5---4---7p5-------------------|---5---4---7---5------------------| 
Eb|--3-3-3-3-3-3-3-3-3-3-3-3-3-3-3-3-|-3-3-3-3-3-3-3-3-3-3-3-3-3--5-5-5-| 


eb|----------------------------------|-------------------------------| 
Bb|----------------------------------|-------------------------------| 
Gb|----------------------------------|-------------------------------| 
Db|----------------------------------|-------------------------------| 
Ab|---9---7---10---9-----------------|---9---7---10---9--------7-7-7-| 
Eb|-7-7-7-7-7-7--7-7-7-7-7-7-7-7-7-7-|-7-7-7-7-7-7--7-7-7-7-7-\5-5-5-| 

eb|---------------------------------|--------------------------------| 
Bb|---------------------------------|--------------------------------| 
Gb|---------------4---4-4-4-4-4-4-4-|-4-4-4-4-4-4-4-4-4-4-4-4-4------| 
Db|-----------4-4-4---4-4-4-4-4-4-4-|-4-4-4-4-4-4-4-4-4-4-4-4-4------| 
Ab|-5-5-5-5-5-5-5-5---5-------------|-5------------------------------| 
Eb|-3-3-3-3-3-3-3-3---3-------------|--------------------------------| 
                        v ^ v ^ v ^     v ^ v ^ v ^ v ^ v ^ v ^ 

   19:50 
eb|---------|---------|---------------| 
Bb|---3p2---|---3p2---|---3p2---------| 
Gb|-4-------|-4-------|-4-------------| x4 
Db|-------4-|-------4-|-------4-------| 
Ab|---------|---------|---------------| 
Eb|---------|---------|---------------| 

eb|----------------------------------------------------------------| 
Bb|----------------------------------------------------------------| 
Gb|----------------------------------------------------------------| 
Db|--------------------------0-0-0---------------------------0-0---| 
Ab|--2-2-2-2-2-2-2-0-0-0-2-2-------2-2-2-2-2-2-2-2-2-2-2-2-2-----2-| 
Eb|----------------------------------------------------------------| 
   PM-------------------------------------------------------------| 


eb|----------------------------------------------------------------| 
Bb|----------------------------------------------------------------| 
Gb|--------------------------------------------------------2-2-2---| 
Db|--------------------------0-0-0---------------0-----------------| 
Ab|--2-2-2-2-2-2-2-0-0-0-2-2-------2-2-2-2-2-2-2---2-2-2-2-------2-| 
Eb|----------------------------------------------------------------| 
   PM-------------------------------------------------------------| 

   (Drums enter) 

eb|----------------------------------------------------------------| 
Bb|----------------------------------------------------------------| 
Gb|----------------2-----------------------------------------------| 
Db|--------------------------0-0-0---------------0---------2-2-4---| 
Ab|--2-2-2-2-2-2-2---0-0-2-2-------2-2-2-2-2-2-2---2-2-2-2-------2-| 
Eb|----------------------------------------------------------------| 
   PM-------------------------------------------------------------| 


eb|----------------------------------------------------------------| 
Bb|----------------------------------------------------------------| 
Gb|----------------------------------------------------------------| 
Db|----------------0---------0-0-0---------------0-----2-2-2-4-4---| 
Ab|--2-2-2-2-2-2-2---2-2-2-2-------2-2-2-2-2-2-2---2-2-----------2-| 
Eb|----------------------------------------------------------------| 
   PM-------------------------------------------------------------| 

              slightly   mute  this   whole   section 
eb|-------------------------------------------------------------------| 
Bb|-------------------------------------------------------------------| 
Gb|-------------------------------------------------------------------| 
Db|--9-9-9-9-9-9-9-9-9-9-9-9-9-9-9-9--7-7-7-7-7-7-7-7-7-7-7-7-7-7-7-7-| 
Ab|--5-5-5-5-5-5-5-5-5-5-5-5-5-5-5-5--4-4-4-4-4-4-4-4-4-4-4-4-4-4-4-4-| 
Eb|-------------------------------------------------------------------| 

              slightly   mute  this   whole   section 
eb|--------------------------------------------------------------------| 
Bb|--------------------------------------------------------------------| 
Gb|--------------------------------------------------------------------| 
Db|--4-4-4-4-4-4-4-4-4-4-4-4-4-4-4-4--2-2-2-2-2-2-2-2-2-2--0-0-0-0-0-0-| 
Ab|--0-0-0-0-0-0-0-0-0-0-0-0-0-0-0-0--x-x-x-x-x-x-x-x-x-x--x-x-x-x-x-x-| 
Eb|-----------------------------------3-3-3-3-3-3-3-3-3-3--2-2-2-2-2-2-| 


   20:43 
eb|---------------------------------|---------------------------------| 
Bb|---------------------------------|---------------------------------| 
Gb|---------------------------------|---------------------------------| 
Db|-7-7-7-7-7-7-5-5-4-4-4-4-4-4-4-4-|-7-7-7-7-7-7-5-5-4-4-4-4-4-4-4-4-| 
Ab|-x-x-x-x-x-x-x-x-2-2-2-2-2-2-2-2-|-x-x-x-x-x-x-x-x-2-2-2-2-2-2-2-2-| 
Eb|-7-7-7-7-7-7-7-7-----------------|-7-7-7-7-7-7-7-7-----------------| 
    slightly muted (^ less  muted ^)  slightly muted (^ less  muted ^) 


eb|---------------------------------|---------------------------------| 
Bb|---------------------------------|---------------------------------| 
Gb|---------------------------------|---------------------------------| 
Db|-2-2-2-2-2-2-4-4-2-2-2-4-4-4-4-4-|---------------------------------| 
Ab|-0-0-0-0-0-0-0-0-0-0-0-0-0-0-0-0-|-4-4-4-5-5-5-7-7-5-5-5-4-4-4-5-5-| 
Eb|---------------------------------|-3-3-3-3-3-3-3-3-3-3-3-3-3-3-3-3-| 
      slightly mute this section        slightly mute this  section   


eb|-------------------------------------------------------------------| 
Bb|-------------------------------------------------------------------| 
Gb|-------------------------------------------------------------------| 
Db|------4--------4-------4-------4-------4-------4-------4-------4---| 
Ab|----5---5----5---5---5---5---5---5---5---5---5---5---5---5---5---5-| 
Eb|--7--------7-------7-------7-------7-------7-------7-------7-------| 

eb|-------------------------------------------------------------------| 
Bb|-------------------------------------------------------------------| 
Gb|-------------------------------------------------------------------| 
Db|------5--------5-------5-------5-------5-------5-------5-------5---| 
Ab|----5---5----5---5---5---5---5---5---5---5---5---5---5---5---5---5-| 
Eb|--7--------7-------7-------7-------7-------7-------7-------7-------| 

eb|-------------------------------------------------------------------| 
Bb|-------------------------------------------------------------------| 
Gb|-------------------------------------------------------------------| 
Db|------7--------7-------7-------7-------7-------7-------7-------7---| 
Ab|----5---5----5---5---5---5---5---5---5---5---5---5---5---5---5---5-| 
Eb|--7--------7-------7-------7-------7-------7-------7-------7-------| 

eb|-------------------------------------------------------------------| 
Bb|-------------------------------------------------------------------| 
Gb|-------------------------------------------------------------------| 
Db|------5--------5-------5-------5-------5-------5-------5-------5---| 
Ab|----5---5----5---5---5---5---5---5---5---5---5---5---5---5---5---5-| 
Eb|--7--------7-------7-------7-------7-------7-------7-------7-------| 

eb|-------------------------------------------------------------------| 
Bb|-------------------------------------------------------------------| 
Gb|-------------------------------------------------------------------| 
Db|------5--------5-------5-------5-------5-------5-------5-------5---| 
Ab|----5---5----5---5---5---5---5---5---5---5---5---5---5---5---5---5-| 
Eb|--7--------7-------7-------7-------7-------7-------7---------------| 
                                                              ^ no note 

    
eb|--------------------------------------------------2-2-2----5-5-5---| 
Bb|--------------------------------------------------3-3-3----5-5-5---| 
Gb|--------------------------------------------------4-4-4----6-6-6---| 
Db|--------------------------------------------------4-4-4----7-7-7---| 
Ab|-2-2-2-2-2-2-2-2-2-2-2-2-2-2-2-2-2-2-2-2-2-2-2-2--2-2-2----7-7-7---| 
Eb|--------------------------------------------------2-2-2----5-5-5---| 
  PM-----------------------------------------------| 

    
   21:35 
eb|--------------------------------------------------------------| 
Bb|--0-0-0-0-0-0-0-0-0-0-0-0-0-0-0-0-0-0-0-0-0-0-0-0-0-0-0-0-0---| 
Gb|--4-4-4-4-4-4-4-4-4-4-4-4-4-4-4-4-4-4-4-4-4-4-4\2-2-2-2-2-2/--| 
Db|--4-4-4-4-4-4-4-4-4-4-4-4-4-4-4-4-4-4-4-4-4-4-4\2-2-2-2-2-2/--| 
Ab|--------------------------------------------------------------| 
Eb|--------------------------------------------------------------| 

eb|------------------------------------------------------------------| 
Bb|--0-0-0-0-0-0-0-0-0-0-0-0-0-0-0-0-0-0-0-0-0-0-0-0-0-0-0-0-0-0-0---| 
Gb|--7-7-7-7-7-7-7-7-7-7-7-7-7-7-7-7-7-7-7-7-7-7-7-7-7\6-6-6-6-6-6\--| 
Db|--9-9-9-9-9-9-9-9-9-9-9-9-9-9-9-9-9-9-9-9-9-9-9-9-9\7-7-7-7-7-7\--| 
Ab|------------------------------------------------------------------| 
Eb|------------------------------------------------------------------| 

eb|--------------------------------------------------------------| 
Bb|--0-0-0-0-0-0-0-0-0-0-0-0-0-0-0-0-0-0-0-0-0-0-0-0-0-0-0-0-0---| 
Gb|--4-4-4-4-4-4-4-4-4-4-4-4-4-4-4-4-4-4-4-4-4-4-4\2-2-2-2-2-2/--| 
Db|--4-4-4-4-4-4-4-4-4-4-4-4-4-4-4-4-4-4-4-4-4-4-4\2-2-2-2-2-2/--| 
Ab|--------------------------------------------------------------| 
Eb|--------------------------------------------------------------| 

                       varying notes/strums on Bm chord 
eb|--------------------------------------------------------------| 
Bb|--3-3---3----3---------3-3-3-3-3-3-3---3-3-3-3-3-3\--2-2-2----| 
Gb|--4-4---4--------------4-4-4-4-4-4-4---4-4-4-4-4-4\--2-2-2----| 
Db|--4-4-4-4---4-4-4-4-4--4-4-4-4-4-4-4---4-4-4-4-4-4\--0-0-0----| 
Ab|-----------------2-2-2--2--2-2-2-2-2---2-2-2-2-2-2\-----------| 
Eb|--------------------------------------------------------------| 

                       varying notes/strums on Gbm chord 
eb|--3-3-3-3----3-3-3-3-3-3-3-3-3-3-3-|-3-3-3-3----3-3-3-3-3-3----------| 
Bb|--3-3-3-3----3-3-3-3-3-3-3-3-3-3-3-|-3-3-3-3----3-3-3-3-3-3----------| 
Gb|--4-4-4-4----4-4-4-4-4-4-4-4-4-4-4-|-4-4-4-4----4-4-4-4-4-4---2-2-2--| 
Db|--5-5-5-5----5-5-5-5-5-5-5-5-5-5-5-|-5-5-5-5----5-5-5-5-5-5---4-4-4--| 
Ab|--5-5-5-5----5-5-5-5-5-5-5-5-5-5-5-|-5-5-5-5----5-5-5-5-5-5---4-4-4--| 
Eb|--3-3-3-3----3-3-3-3-3-3-3-3-3-3-3-|-3-3-3-3----3-3-3-3-3-3----------| 



eb|--3-3-3-3----3-3-3-3-3-3-3-3-3-3-3-3-3-3-3-3-3-3-3-3-3-3---5-5-5--| 
Bb|--3-3-3-3----3-3-3-3-3-3-3-3-3-3-3-3-3-3-3-3-3-3-3-3-3-3---5-5-5--| 
Gb|--4-4-4-4----4-4-4-4-4-4-4-4-4-4-4-4-4-4-4-4-4-4-4-4-4-4---6-6-6--| 
Db|--5-5-5-5----5-5-5-5-5-5-5-5-5-5-5-5-5-5-5-5-5-5-5-5-5-5---7-7-7--| 
Ab|--5-5-5-5----5-5-5-5-5-5-5-5-5-5-5-5-5-5-5-5-5-5-5-5-5-5---7-7-7--| 
Eb|--3-3-3-3----3-3-3-3-3-3-3-3-3-3-3-3-3-3-3-3-3-3-3-3-3-3---5-5-5--| 

eb|--3-3-3-3-3-3-3-3-3-3-3-3-3-3-3-3-3-3-3-3-3-3-3-3-3-3-3----2-2-2--| 
Bb|--3-3-3-3-3-3-3-3-3-3-3-3-3-3-3-3-3-3-3-3-3-3-3-3-3-3-3----2-2-2--| 
Gb|--4-4-4-4-4-4-4-4-4-4-4-4-4-4-4-4-4-4-4-4-4-4-4-4-4-4-4----2-2-2--| 
Db|--5-5-5-5-5-5-5-5-5-5-5-5-5-5-5-5-5-5-5-5-5-5-5-5-5-5-5----4-4-4--| 
Ab|--5-5-5-5-5-5-5-5-5-5-5-5-5-5-5-5-5-5-5-5-5-5-5-5-5-5-5----4-4-4--| 
Eb|--3-3-3-3-3-3-3-3-3-3-3-3-3-3-3-3-3-3-3-3-3-3-3-3-3-3-3----2-2-2--| 


   22:21 
eb|------------------------------------|--------------------------------------| 
Bb|-------------------(3)---(2)--(2)---|----------------------(3)---(2)-------| notes in 
Gb|--4-4-4-4-4-4-4-4-4-4-4-4-4-4-(4)-4-|-(4)-4-4-(4)-4-4-4-4-4-4-4-4-4-4-(2)--| brackets 
Db|--4-4-4-4-4-4-4-4-4-4-4-4-4-4--4--4-|-(4)-4-4-(4)-4-4-4-4-4-4-4-4-4-4-(2)--| are not 
Ab|--2-2-2-2-2-2-2-2-2-2-2-2-2-2--2--2-|-(2)-2-2-(2)-2-2-2-2-2-2-2-2-2-2-(0)--| muted 
Eb|------------------------------------|--------------------------------------| 
   PM---------------------------------| PM----------------------------------| 

eb|--------------------------------------|-------------------------------------| 
Bb|--------------------------------------|-------------------------------------| 
Gb|---------(4)--------------------------|---------------------4-4-4--6-6-6-6--| 
Db|-(5)-5-5-(5)-5-5-5-5-5-(4)---(0)-(0)--|(4)---(0)----(0)-----5-5-5--7-7-7-7--| 
Ab|-(5)-5-5-(5)-5-5-5-5-5----5-5---5---5-|---5-5---5-5-(5)-5-5-5-5-5--7-7-7-7--| 
Eb|-(3)-3-3-(3)-3-3-3-3-3----3-3---3---3-|---3-3---3-3-----3-3-3-3-3--5-5-5-5--| 
  PM----------------------------------|   PM-----------------| v v v  ^ v ^ v 

                      P M   PM    
eb|-------------------------------|----------------------------------| 
Bb|--3-------------3--3-3-2-2-----|----------------------------------| 
Gb|--4------------------------2-2-|-4-----4-----4-----4-4\2--2-2-2-2-| 
Db|--4----------------------------|-4-4-4-4-4-4-4-----4-4\2--2-2-2-2-| 
Ab|--2----------------------------|-------------2-----2-2\0--0-0-0-0-| 
Eb|-------------------------------|----------------------------------| 
                                   PM---------| 

eb|------------------------------------------------------------------| 
Bb|------------------------------------------------------------------| 
Gb|-4---4-4-------4-4-4-4-4-------4-4-4-4-4---4-4-4-4-4---4-4-4------| 
Db|-5---5-5-------5-5-5-5-5-------5-5-5-5-5---5-5-5-5-5---5-5-5------| 
Ab|-5---5-5-------5-5-5-5-5-------5-5-5-5-5---5-5-5-5-5---5-5-5------| 
Eb|-3---3-3-------3-3-3-3-3-------3-3-3-3-3---3-3-3-3-3---3-3-3------| 
                  v ^ v ^ v       v ^ v ^ v   v ^ v ^ v   v ^ v 


   22:48 
eb|------------------|-----------------|------------------|----------------| 
Bb|------------------|-----------------|------------------|----------------| 
Gb|------------------|-----------------|------------------|-6-6----4---4---| 
Db|------4-4-0-0-----|-----4-4-0-0-----|------4-4-0-0-----|-7-7----5---5---| x3 
Ab|--2-2---------4-4-|-2-2---------4-4-|-4-4----------4-4-|-7-7----5---5---| 
Eb|------------------|-----------------|------------------|-5-5----3---3---| 
   PM----------------------------------------------------| 

eb|------------------|-----------------|------------------|----------------| 
Bb|------------------|-----------------|------------------|----------------| 
Gb|------------------|-----------------|------------------|-6-6----4-------| 
Db|------4-4-0-0-----|-----4-4-0-0-----|------4-4-0-0-----|-7-7----5-------|  
Ab|--2-2---------4-4-|-2-2---------4-4-|-4-4----------4-4-|-7-7----5-------| 
Eb|------------------|-----------------|------------------|-5-5----3-------| 
   PM----------------------------------------------------| 


             
                          CHIME  INTERLUDE 


   23:21 
eb|-----------------------------------------|-----------------------------------------------| 
Bb|-----------------------------------------|-----------------------------------------------| 
Gb|-----------------------------------------|-----------------------------------------------| 
Db|-----------------------------------------|-----------------------------------------------| 
Ab|--------------------------------------9\-|---------------------10-------9----------------| 
Eb|--7-7----7-7-7-7-7-7-7-7-7----7-7-7-7----|-7-7-7-7-7-7-7-7-7-7----7-7-7---7-7-10-10-7-7--| 

eb|------------------------------|---------------------------------------| 
Bb|------------------------------|---------------------------------------| 
Gb|------------------------------|---------------------------------------| 
Db|------------------------------|---------------------------------------| 
Ab|---------------------------9\-|---------------10-------9--------------| 
Eb|-7-7-7-7-7-7-7-7-7-7-7-7-7----|-7-7-7-7-7-7-7----7-7-7---7-10-10-10-7-| 

eb|--------------------------------|-----------------------------------| 
Bb|--------------------------------|-----------------------------------| 
Gb|--------------------------------|-----------------------------------| 
Db|--------------------------------|-----------------------------------| 
Ab|-----------------------------9\-|---------------10-------9----------| 
Eb|-7-7-7-7-7-7-7-7-7-7-7-7-7-7----|-7-7-7-7-7-7-7----7-7-7---7-7-10-7-| 

eb|----------------------------------|-----------------------------------------| 
Bb|----------------------------------|-----------------------------------------| 
Gb|----------------------------------|-----------------------------------------| 
Db|----------------------------------|-----------------------------------------| 
Ab|-------------------------------9\-|---------------10-------9----------------| 
Eb|-7-7-7-7-7-7-7-7-7-7-7-7-7-7-7----|-7-7-7-7-7-7-7----7-7-7---7-10-10-10-7-7-| 

e|-------------------------------------------------------------------------| 
Bb|------------------------------------------------------------------------| 
Gb|------------------------------------------------------------------------| 
Db|------------------------------------------------------------------------| 
Ab|------------------------------------------------------------------------| 
Eb|-7-7-7---7-7-7---7-7-7---7-7-7---7-7-7---7-7-7---7-7-7---7-7-7---7-7-7--| 

eb|---------------------------------------------------------------------------| 
Bb|---------------------------------------------------------------------------| 
Gb|---------------------------------------------------------------------------| 
Db|---------------------------------------------------------------------------| 
Ab|---------------------------------------------------------------------------| 
Eb|-7-7-7---7-7-7---7-7-7---7-7-7--(7-7-7)--(7-7-7)--(7-7-7)-(7-7-7)--(7-7-7)-| 
  PM------------------------------------------------------------------------| 


   24:13 
eb|------------------|-----------------|-----------------|-----------------| 
Bb|----------0-------|---------0-------|---------0-------|---------0-------| 
Gb|------4-----4-----|-----4-----4-----|-----4-----4-----|-----4-----4-----| 
Db|----4---4-----4---|---4---4-----4---|---4---4-----4---|---4---4-----4---| x2 
Ab|--2-------------2-|-0-------------0-|---------------0-|-------0-------0-| 
Eb|------------------|-----------------|-3---------------|-3---------------| 

eb|------------------|-----------------|-----------------|-----------------| 
Bb|----------0-------|---------0-------|---------0-------|---------0-------| 
Gb|------4-----4-----|-----4-----4-----|-----4-----4-----|-----4-----4-----| 
Db|----4---4-----4---|---4---4-----4---|---4---4-----4---|---4---4-----4---|  
Ab|--2-------------2-|-0-----0-------0-|---------------0-|-------0-------0-| 
Eb|------------------|-----------------|-3-----3---------|-3---------------| 

eb|------------------|-----------------|-----------------|--------------------| 
Bb|----------0-------|---------0-------|---------0-------|-------0--(0)-------| 
Gb|------4-----4-----|-----4-----4-----|-----4-----4-----|---4-----4--(4)-----| 
Db|----4---4-----4---|---4---4-----4---|---4---4-----4---|--------------(4)---|  
Ab|--2-------------2-|-0-------------0-|---------------0-|----------------(2)-| 
Eb|------------------|-----------------|-3---------------|--------------------| 

eb|---------------------------------------------------------------------------| 
Bb|-----------0-0-0-0-0-0-0-0-0-0-0-0-----------------------------------------| 
Gb|-----------4-4-4-4-4-4-4-4-4-4-4-4-----------------------------------------| 
Db|-----------4-4-4-4-4-4-4-4-4-4-4-4-----------------------------------------| 
Ab|--2----2-------------------------------------------------------------------| 
Eb|---------------------------------------------------------------------------| 
              swell and then fade.... 


************************ 

|( )  Ghost note 
|~    Vibrato 
|p    Pull-off 
|h    Hammer-on 
|b    Bend 
|qb   Quarter bend 
|r    Release 
|pbr  Pre-bend then release 
|hb   Half-bend 
|hbr  Half-bend then release 
|fb   Full-bend 
|X    Dead note 
|\    Slide down 
|/    Slide-up 
|*    Muted notes 

************************ 
  

cifra enviadasem correções
enviado porenviada por:ubirbomfim
top 5 | buckethead
top eletrônica
Outras músicas do artista letras do(a) Buckethead
Top cifras »Top artistas »
Petaxxon Comunicação Online
Cifras.com.br - Melhor e mais completo site de cifras e tablaturas do Brasil
Mais de 1 milhão de acordes de músicas cadastradas desde 2003
As informações contidas no nosso site são colaborações de seus usuários e podem conter erros, sendo assim, não nos responsabilizamos sobre nenhuma destas.
close
menos
mais
close
Cor dos acordes:

Cor da letra:

 

save
close
close
 
redimensionar