Cifras e Tablaturas
Bush

Bush

Broken In Paradise

Cifras Cancelar Versão de Impressão Print

Bush - Broken In Paradise

Tom: E

  			
Tuning (E A D G B E), Palm mute top four strings. 
Album Tuning (c# A D G B E), Down ~ 10%, (c#, D) Down ~ 20% 
Live Tuning (D A D D D D), Down ~ 10% 
Key: (E + D) -> (E + A) or (D + C#) 



----|---------------------------------------------------------------------|--| 
----|---------------------------------------------------------------------|--| 
----|---------------------------------------------------------------------|--| 
----|-x-------------x-------------x-------------x-------------x-----------|--| 
----|-x-------------x-------------x-------------x-------------x-----------|--| 
----|-8-------------7-------------5-------------3-------------1-----------|--| 


  Intro/Verse 


----|---------------------------|--|------------------------------------| 
----|----17-18-20---17br-br-----|--|------------------------------------| 
----|-19------------------------|--|------------------------------------| 
----|---------------------------|2x|-15----------------17v-----15v------| 
----|---------------------------|--|------12---15-----------------------| 
----|---------------------------|--|------------------------------------| 



----|-------------------------------|--|--------------------------------------------------| 
----|-17----------------------------|--|--------------------------------------------------| 
----|---------17--------17----17----|--|-17--------------17----------17-------------------| 
----|-------------17----------------|2x|-----17------17------17-----------------------19--| 
----|-------------------------------|--|---------20--------------20------17/19\17---------| 
----|-------------------------------|--|--------------------------------------------------| 



--------------------------| 
---------------17/18\17---| 
---17----19---------------| 
--------------------------| 
--------------------------| 
--------------------------| 






----|-------------------------| 
----|-------------------------| 
----|-------------------------| 
----|-7-------7---------------| 
----|-7-------7-------5-------| 
----|-----------------3-------| 






----|---------------------------------------------------------------------------| 
----|---------------------------------------------------------------------------| 
----|-2---2---2---2---2---2---2---2---------------------2---2---2---2---2---2---| 
----|-3---3---3---3---3---3---3---3---------------------3---3---3---3---3---3---| 
----|-3---3---3---3---3---3---3---3---7---7-----5-------3---3---3---3---3---3---| 
----|---------------------------------8---8-----3-------------------------------| 


  Chorus 

-----------------------------------------------------------------------------| 
-----------------------------------------------------------------------------| 
-2---2---------------------2---2---2---2---2---2---2---2---------------------| 
-3---3---------------------3---3---3---3---3---3---3---3---------------------| 
-3---3---7---7-----7-------3---3---3---3---3---3---3---3---7---7------5------| 
---------8---8-----5---------------------------------------8---8------3------| 








----|---------------------------|--|----------------------------------------| 
----|---------------------------|--|----------------------------------------| 
----|---------------------------|--|----------------------------------------| 
----|---------------------------|--|----------------------------------------| 
----|---------------------------|--|----------------------------------------| 
----|-1------------8------------|--|-1------------8-------------5-----------| 


  Bridge 

----|---------------------------|--| 
----|---------------------------|--| 
----|---------------------------|--| 
----|---------------------------|--| 
----|---------------------------|--| 
----|-5------------8------------|--| 
    	
fixar
fixar inscrever-se

enviado porenviado por: paulantunes
cifra enviadaCorrigida por: sem correções
logo top cifrasComente
ico música do artistaMúsicas deste artista
ico curtiuCurtiu?
ico destaqueDestaque
Petaxxon Comunicação Online

Cifras.com.br - Melhor e mais completo site de cifras e tablaturas do Brasil Mais de 1 milhão de acordes de músicas cadastradas desde 2003
As informações contidas no nosso site são colaborações de seus usuários e podem conter erros, sendo assim, não nos responsabilizamos sobre nenhuma destas.

close
menos
mais
close
Cor dos acordes:

Cor da letra:

close
Alinhar acordes a direita Alinhar acordes a esquerda Alinhar acordes em baixo Alinhar acordes no topo
close
  Mostrar todos os acordes Esconder acordes muito fáceis Esconder acordes fáceis Esconder acordes intermediários
redimensionar
glossário