Cifras e Tablaturas
C-BooL

C-BooL

Never Go Away

Cifras Cancelar Versão de Impressão
cifras

C-BooL - Never Go Away

fixar na tela  
Exibindo: vídeo-aula ver clipes redimensionar

Tom:

  
0:00-0:35 

e|-------------------------------------------------------------| x4  
B|-------------------------------------------------------------| 
G|-------------------------------------------------------------| 
D|-------------------------------------------------------------| 
A|----6-6-6-6-4-6---6-6-6-6-4-6---6-6-6-6-4-6---7-7-7-6-4-6----| 
E|--4-------------7-------------2-------------0----------------| 

0:35-1:15 
e|-------------------------------------------------------------| x5 
B|-------------------------------------------------------------| 
G|-------------------------------------------------------------| 
D|------------------------------4------------------------------| 
A|----6-6-6-6-4-6---6-6-6-6-4-6---6-6-6-6-4-6-7--7-7-7-6-4-2---| 
E|--4-------------7--------------------------------------------| 
  

top 5 | c-bool
top rock'n roll
Outras músicas do artista letras do(a) C-BooL
Top cifras »Top artistas »
Petaxxon Comunicação Online
Cifras.com.br - Melhor e mais completo site de cifras e tablaturas do Brasil
Mais de 1 milhão de acordes de músicas cadastradas desde 2003
As informações contidas no nosso site são colaborações de seus usuários e podem conter erros, sendo assim, não nos responsabilizamos sobre nenhuma destas.
close
menos
mais
close
Cor dos acordes:

Cor da letra:

 

save
close
close
 
redimensionar