Cifras e Tablaturas
Cameron Mee

Cameron Mee

Spitfire

Cifras Cancelar Versão de Impressão Print

Cameron Mee - Spitfire

Tom:

  • 0:00 / 0:00
  			---------------------------------------------------------- 
---------------------------------------------------------- 
---------------------------------------------------------- 
-----5------------------------0--3-------------xxxx------- 
---------------0--3--0--5--0-------0--3--------xxxx------- 
---0--0--3--0----------------------------0--3P-xxxx3BP---- 

Repeat twice then 3rd time play 

---------------------------------------------------------- 
---------------------------------------------------------- 
---------------------------------------------------------- 
-----5-------------------------xxxx----------------------- 
-------------------------------xxxx----------------------- 
---0--0--3--5--7--9--11--12----xxxx3BP-------------------- 

Then the Chorus chords are 

---------------------------------------------------------- 
---------------------------------------------------------- 
---------------------------------------------------------- 
5--5---7--7---4--4---5--5---5--5---7--7---4--4---5--5 
5--5---7--7---4--4---5--5---5--5---7--7---4--4---5--5 
3--3---5--5---2--2---3--5---3--3---5--5---2--2---3--3 


5--5---7--7---9--9---4--4---5--5---7--7---4--4---5--5 
5--5---7--7---9--9---4--4---5--5---7--7---4--4---5--5 
3--3---5--5---7--7---2--2---3--3---5--5---2--2---3--3 

words go (each line of singing for one playing of the four chords) 
spitfire, burn like a tire  
in the line of fire 
in the night, so quiet 
never understand never understood 
couldnt make a word, sound like it should 
i dont know, Spitfire
    	

enviado porenviado por: Meecam
cifra enviadaCorrigida por: sem correções
logo top cifrasComente
ico música do artistaMúsicas deste artista
ico curtiuCurtiu?
ico destaqueDestaque
Petaxxon Comunicação Online

Cifras.com.br - Melhor e mais completo site de cifras e tablaturas do Brasil Mais de 1 milhão de acordes de músicas cadastradas desde 2003
As informações contidas no nosso site são colaborações de seus usuários e podem conter erros, sendo assim, não nos responsabilizamos sobre nenhuma destas.

close
menos
mais
close
Cor dos acordes:

Cor da letra:

close
Alinhar acordes a direita Alinhar acordes a esquerda Alinhar acordes em baixo Alinhar acordes no topo
close
  Mostrar todos os acordes Esconder acordes muito fáceis Esconder acordes fáceis Esconder acordes intermediários
redimensionar
glossário