Cifras e Tablaturas
Candlemass

Candlemass

Voices In The Wind

Cifras Cancelar Versão de Impressão
cifras

Candlemass - Voices In The Wind

fixar na tela  
Exibindo: vídeo-aula ver clipes redimensionar

Tom:

  
        North is cold, summer is late 
e|--------------------------------------------------| 
B|--------------7-----------------------7-----------| 
G|-----------9-----9-----------------9-----9--------| 
D|--------9-----------9-----------9-----------9-----| 
A|-----7-----------------7-----7-----------------7--| 
E|--0-----------------------0-----------------------| 

        South is sorrow, surrounded by hate 
e|--------------0-----------------------0-----------| 
B|-----------6-----6-----------------6-----6--------| 
G|--------7-----------7-----------7-----------7-----| 
D|-----8-----------------8-----8-----------------8--| 
A|--8-----------------------8-----------------------| 
E|--------------------------------------------------| 

        West is far, a dream you are creating 
e|--------------------------------------------------| 
B|--------------7-----------------------7-----------| 
G|-----------9-----9-----------------9-----9--------| 
D|--------9-----------9-----------9-----------9-----| 
A|-----7-----------------7-----7-----------------7--| 
E|--0-----------------------0-----------------------| 

        East is here, and your fate is awaiting 
e|--------------0-----------------------------------| 
B|-----------6-----6--------------------------------| 
G|--------7-----------7-----------------------------| 
D|-----8-----------------8--------------------------| 
A|--8----------------------(8)----------------------| 
E|--------------------------------------------------| 
  

top 5 | candlemass
top heavy metal
Outras músicas do artista letras do(a) Candlemass
Top cifras »Top artistas »
Petaxxon Comunicação Online
Cifras.com.br - Melhor e mais completo site de cifras e tablaturas do Brasil
Mais de 1 milhão de acordes de músicas cadastradas desde 2003
As informações contidas no nosso site são colaborações de seus usuários e podem conter erros, sendo assim, não nos responsabilizamos sobre nenhuma destas.
close
menos
mais
close
Cor dos acordes:

Cor da letra:

 

save
close
close
 
redimensionar