Cifras e Tablaturas
Cari Cari

Cari Cari

No War

Cifras Cancelar Versão de Impressão
cifras

Cari Cari - No War

fixar na tela  
Exibindo: vídeo-aula ver clipes redimensionar

Tom:

  
Tuning DADGBE 

Use Echo and overdrive 

Intro 

e|---------------------------------------------------------------------------| 
B|---------------------------------------------------------------------------| 
G|---------------------------------------------------------------------------| 
D|--5/7-7---7-7-7-7/10-10-10--10-10-10-10/7-7-7--7-7-7/5-5-5-5---------------| 
A|---------------------------------------------------------------------------| 
D|---------------------------------------------------------------------------| 

e|---------------------------------------------------------------------------| 
B|---------------------------------------------------------------------------| 
G|---------------------------------------------------------------------------| 
D|-0h2-2-----------------------0h2-2-----------------------------------------| 
A|-------3-3-3-3h5-5-5---------------3-3-3-3h5-5-5---------------------------| 
D|---------------------------------------------------------------------------| 

repeat several times then 

e|--------------------------------------0~-----------------------------------| 
B|--------------------------------------0~-----------------------------------| 
G|--------7-7-----7-7-------7-7---------0~-----------------------------------| 
D|--------7-7-----7-7-------7-7----------------------------------------------| 
A|--------5-5-----5-5-------5-5----------------------------------------------| 
D|---0-0-------0-0------0-0---------0-0-0------------------------------------| 


Verse 

strum the rhythm with dead notes with your hand on 1 fret  
e|---x------------x----------------------------------------------------------| 
B|---x---6h7------x----------------------------------------------------------| 
G|---x-------7~---x--5h7-5h7~------------------------------------------------| 
D|---x------------x----------------------------------------------------------| 
A|---x------------x----------------------------------------------------------| 
D|---x------------x----------------------------------------------------------| 

e|---------------------------------------------------------------------------| 
B|---------------------------------------------------------------------------| 
G|---------------------------------------------------------------------------| 
D|--5/7-7-7--7-7--5-5--5----0h2-2--------------------------------------------|   
A|--------------------------------3-3-3-3h5-5-5------------------------------| 
D|---------------------------------------------------------------------------| 


Bridge 

e|---------------------------------------------------------------------------| 
B|---------------------------------------------------------------------------| 
G|--7-7----------------------------------------------------------------------| 
D|--7-7----3-3----------------/10--3~-5-5-----3h5-5~-------------------------| 
A|--5-5--------3-3-3h5-5------/10--3~-----3-3-3h5-5~-------------------------| 
D|---------------------------------------------------------------------------| 


Outro 

e|---------------------------------------------------------------------------| 
B|---------------------------------------------------------------------------| 
G|---------------------------------------------------------------------------| 
D|---0-------10-----3------5-------------------------------------------------| 
A|---0--x8---10-x8--3-x8---5--x8---------------------------------------------| 
D|---0-------10-----3------5-------------------------------------------------| 
    PM the whole thing 

play x4 with PM, then x2 without, then 

e|--0------------------------------------------------------------------------| 
B|--0------------------------------------------------------------------------| 
G|--0------------------------------------------------------------------------| 
D|--0~-----------------------------------------------------------------------| 
A|--0~-----------------------------------------------------------------------| 
D|--0~-----------------------------------------------------------------------| 


e|---------------------------------------------------------------------------| 
B|---------------------------------------------------------------------------| 
G|--7-7----------------------------------------------------------------------| 
D|--7-7----3-3----------------/10--3~-5-5-----3h5-5~-------------------------| 
A|--5-5--------3-3-3h5-5------/10--3~-----3-3-3h5-5~-------------------------| 
D|---------------------------------------------------------0-----------------| 
                                                           PM 



************************************ 

| x  Dead note 
| h  Hammer-on 
| /  Slide up 
| ~  Vibrato 
| PM Palm Mute 

************************************ 
  

top 5 | cari cari
top rock'n roll
Outras músicas do artista letras do(a) Cari Cari
Top cifras »Top artistas »
Petaxxon Comunicação Online
Cifras.com.br - Melhor e mais completo site de cifras e tablaturas do Brasil
Mais de 1 milhão de acordes de músicas cadastradas desde 2003
As informações contidas no nosso site são colaborações de seus usuários e podem conter erros, sendo assim, não nos responsabilizamos sobre nenhuma destas.
close
menos
mais
close
Cor dos acordes:

Cor da letra:

 

save
close
close
 
redimensionar