Cifras e Tablaturas
Cifras Cancelar Versão de Impressão
cifras

Catfish And The Bottlemen - Outside

fixar na tela  
Exibindo: vídeo-aula ver clipes redimensionar

Tom:

  
Intro 

(Lead) 
e|----------------| 
B|-5~----------4~-| 
G|----------------| 
D|----------------| 
A|----------------| 
E|----------------| 


Verse 

(Lead) 
e|----------------------------------------| 
B|-2~----------5~----------5~----------4~-| 
G|----------------------------------------|  
D|----------------------------------------| 
A|----------------------------------------| 
E|----------------------------------------|(x4) 

(Lead) 
e|-------------------------4~-------------| 
B|-2~----------5~----------------------4~-| 
G|----------------------------------------| 
D|----------------------------------------| 
A|----------------------------------------| 
E|----------------------------------------| 

(Lead) 
e|----------------------------------------| 
B|-2~----------5~----------5~----------4~-| 
G|----------------------------------------| 
D|----------------------------------------| 
A|----------------------------------------| 
E|----------------------------------------| 


Pre-Chorus 

(Rhythm) 
e|-----------------------------------------------------| 
B|-----------------------------------------------------| 
G|-----------------------------------------------------| 
D|-x--x--11--11---x--x--9--9---x--x--8--8---x--x--7--7-|      
A|-x--x--11--11---x--x--9--9---x--x--8--8---x--x--7--7-|      
E|-x--x--9---9----x--x--7--7---x--x--6--6---x--x--5--5-|(x3) 

e|-------------------------------------------------------------| 
B|-------------------------------------------------------------| 
G|-------------------------------------------------------------| 
D|-x--x--11--11---9--9--9--9--8-8-8-8-8-8-8-8--7-7-7-7-7-7-7-7-|      
A|-x--x--11--11---9--9--9--9--8-8-8-8-8-8-8-8--7-7-7-7-7-7-7-7-|      
E|-x--x--9---9----7--7--7--7--6-6-6-6-6-6-6-6--5-5-5-5-5-5-5-5-| 


Chorus 

(Rhythm) 
e|-0-0-0-0-0-0-0-0-0-0-0-0-0-0-0-0--0-0-0-0-0-0-0-0-0-0-0-0-0-0-0-0-| 
B|-0-0-0-0-0-0-0-0-0-0-0-0-0-0-0-0--2-2-2-2-2-2-2-2-2-2-2-2-2-2-2-2-| 
G|-1-1-1-1-1-1-1-1-1-1-1-1-1-1-1-1--2-2-2-2-2-2-2-2-2-2-2-2-2-2-2-2-| 
D|-2-2-2-2-2-2-2-2-2-2-2-2-2-2-2-2--2-2-2-2-2-2-2-2-2-2-2-2-2-2-2-2-| 
A|-2-2-2-2-2-2-2-2-2-2-2-2-2-2-2-2--0-0-0-0-0-0-0-0-0-0-0-0-0-0-0-0-| 
E|-0-0-0-0-0-0-0-0-0-0-0-0-0-0-0-0--x-x-x-x-x-x-x-x-x-x-x-x-x-x-x-x-|(x2) 

(Lead) 
e|---------------------------------------------------------0-0-0-0-2-2-2-2-4-4-4-4-4-4-4br-| 
B|-----------------------------------------0-0-0-0-2-2-2-2---------------------------------| 
G|---------------------------------2-2-2-2-------------------------------------------------| 
D|-----------------------------------------------------------------------------------------| 
A|-----------------------------------------------------------------------------------------| 
E|-----------------------------------------------------------------------------------------|(x2) 


Post-Chorus 

(Rhythm) 
e|-----0-------0-------0---------0------0-----2------| 
B|---2---2---2---2---2---2---2-4------2--0--0---0----| 
G|---------------------------------------------------| 
D|---------------------------------------------------| 
A|-4-------2-------1-------0--------4-----2-------1~-| 
E|---------------------------------------------------| 


Verse 

(Lead) 
e|----------------------------------------| 
B|-2~----------5~----------5~----------4~-| 
G|----------------------------------------|  
D|----------------------------------------| 
A|----------------------------------------| 
E|----------------------------------------|(x4) 

(Lead) 
e|-------------------------4~-------------| 
B|-2~----------5~----------------------4~-| 
G|----------------------------------------| 
D|----------------------------------------| 
A|----------------------------------------| 
E|----------------------------------------| 

(Lead) 
e|----------------------------------------| 
B|-2~----------5~----------5~----------4~-| 
G|----------------------------------------| 
D|----------------------------------------| 
A|----------------------------------------| 
E|----------------------------------------| 


Pre-Chorus 

(Rhythm) 
e|-----------------------------------------------------| 
B|-----------------------------------------------------| 
G|-----------------------------------------------------|  
D|-x--x--11--11---x--x--9--9---x--x--8--8---x--x--7--7-|      
A|-x--x--11--11---x--x--9--9---x--x--8--8---x--x--7--7-|      
E|-x--x--9---9----x--x--7--7---x--x--6--6---x--x--5--5-| 

e|-------------------------------------------------------------| 
B|-------------------------------------------------------------| 
G|-------------------------------------------------------------| 
D|-x--x--11--11---9--9--9--9--8-8-8-8-8-8-8-8--7-7-7-7-7-7-7-7-|      
A|-x--x--11--11---9--9--9--9--8-8-8-8-8-8-8-8--7-7-7-7-7-7-7-7-|      
E|-x--x--9---9----7--7--7--7--6-6-6-6-6-6-6-6--5-5-5-5-5-5-5-5-| 


Chorus 

(Rhythm) 
e|-0-0-0-0-0-0-0-0-0-0-0-0-0-0-0-0--0-0-0-0-0-0-0-0-0-0-0-0-0-0-0-0-| 
B|-0-0-0-0-0-0-0-0-0-0-0-0-0-0-0-0--2-2-2-2-2-2-2-2-2-2-2-2-2-2-2-2-| 
G|-1-1-1-1-1-1-1-1-1-1-1-1-1-1-1-1--2-2-2-2-2-2-2-2-2-2-2-2-2-2-2-2-|  
D|-2-2-2-2-2-2-2-2-2-2-2-2-2-2-2-2--2-2-2-2-2-2-2-2-2-2-2-2-2-2-2-2-| 
A|-2-2-2-2-2-2-2-2-2-2-2-2-2-2-2-2--0-0-0-0-0-0-0-0-0-0-0-0-0-0-0-0-| 
E|-0-0-0-0-0-0-0-0-0-0-0-0-0-0-0-0--x-x-x-x-x-x-x-x-x-x-x-x-x-x-x-x-|(x2) 

(Lead) 
e|---------------------------------------------------------0-0-0-0-2-2-2-2-4-4-4-4-4-4-4br-| 
B|-----------------------------------------0-0-0-0-2-2-2-2---------------------------------| 
G|---------------------------------2-2-2-2-------------------------------------------------| 
D|-----------------------------------------------------------------------------------------| 
A|-----------------------------------------------------------------------------------------| 
E|-----------------------------------------------------------------------------------------|(x2) 

  
Post-Chorus 

(Rhythm) 
e|-----0-------0-------0---------0------0-----0-------0-------0---------0| 
B|---2---2---2---2---2---2---2-4------2--2--2---2---2---2---2---2---2-4--| 
G|-----------------------------------------------------------------------| 
D|-----------------------------------------------------------------------| 
A|-4-------2-------1-------0--------4-----2-------2-------1-------0------| 
E|-----------------------------------------------------------------------| 


Pre-Chorus  

(Bass plays majority until second time) 

(Rhythm) 
e|--------------------------------------| 
B|--------------------------------------| 
G|--------------------------------------|  
D|--------------------------------------|      
A|--------------------------------------|      
E|--------------------------------------|(x3) 

e|------------------------------------------------------| 
B|------------------------------------------------------| 
G|------------------------------------------------------| 
D|---------------------8-8-8-8-8-8-8-8--7-7-7-7-7-7-7-7-|      
A|---------------------8-8-8-8-8-8-8-8--7-7-7-7-7-7-7-7-|      
E|---------------------6-6-6-6-6-6-6-6--5-5-5-5-5-5-5-5-| 


Chorus 

(Rhythm) 
e|-0-0-0-0-0-0-0-0-0-0-0-0-0-0-0-0--0-0-0-0-0-0-0-0-0-0-0-0-0-0-0-0-| 
B|-0-0-0-0-0-0-0-0-0-0-0-0-0-0-0-0--2-2-2-2-2-2-2-2-2-2-2-2-2-2-2-2-| 
G|-1-1-1-1-1-1-1-1-1-1-1-1-1-1-1-1--2-2-2-2-2-2-2-2-2-2-2-2-2-2-2-2-| 
D|-2-2-2-2-2-2-2-2-2-2-2-2-2-2-2-2--2-2-2-2-2-2-2-2-2-2-2-2-2-2-2-2-| 
A|-2-2-2-2-2-2-2-2-2-2-2-2-2-2-2-2--0-0-0-0-0-0-0-0-0-0-0-0-0-0-0-0-| 
E|-0-0-0-0-0-0-0-0-0-0-0-0-0-0-0-0--x-x-x-x-x-x-x-x-x-x-x-x-x-x-x-x-|(x2) 

(Lead) 
e|---------------------------------------------------------0-0-0-0-2-2-2-2-4-4-4-4-4-4-4br-| 
B|-----------------------------------------0-0-0-0-2-2-2-2---------------------------------| 
G|---------------------------------2-2-2-2-------------------------------------------------|  
D|-----------------------------------------------------------------------------------------| 
A|-----------------------------------------------------------------------------------------| 
E|-----------------------------------------------------------------------------------------|(x2) 

  
Post-Chorus 

(Rhythm) 
e|-----0-------0-------0---------0------0-----2------| 
B|---2---2---2---2---2---2---2-4------2--0--0---0----| 
G|---------------------------------------------------| 
D|---------------------------------------------------| 
A|-4-------2-------1-------0--------4-----2-------1~-| 
E|---------------------------------------------------| 


Outro/solo 

(Rhythm) 
e|-----------------------------------------------| 
B|-----------------------------------------------| 
G|-----------------------------------------------|  
D|-11---11-11-x-x-9-9-x-9-9-x-8----8--8----------| 
A|-11---11-11-x-x-9-9-x-9-9-x-8----8--8----------|      
E|-9----9--9--x-x-7-7-x-7-7-x-6----6--6----------|(x3) 

(Lead on first solo) 
e|------------------------------------------(14)-| 
B|-------------------------------------(14)--16b-| 
G|--------------------------------------16b------| (After each time the rhythm 
D|-----------------------------------------------|  plays, there is a solo from 
A|-----------------------------------------------|  the lead/rhythm) 
E|-----------------------------------------------| 

(Rhythm on second solo) 
e|------------------------------------------------------------------------| 
B|------------------------------------------------------------------------| 
G|------------------------------------------------------------------------| 
D|------------------------------------------------------------------------| 
A|--------------------------------------0/14(tremolo picked during slide)-| 
E|------------------------------------------------------------------------| 

(Lead on third solo) 
e|-----------------------------------------------| 
B|-------------------------------------(14)------| 
G|--------------------------------------16b-(14)-| 
D|-------------------------------------------16b-| 
A|-----------------------------------------------| 
E|-----------------------------------------------| 

(Rhythm) 
e|--------------------------| 
B|--------------------------| 
G|--------------------------| 
D|-11---11-11-x-x-9-9-x-9-9-| 
A|-11---11-11-x-x-9-9-x-9-9-|      
E|-9----9--9--x-x-7-7-x-7-7-| 



************************************ 

| x   Muted 
|(n)  Ghost note 
| b   Bend 
| br  Bend release 
| /   Slide up 
| ~   Vibrato 

************************************ 
  

top 5 | catfish and the bottlemen
top rock'n roll
Outras músicas do artista letras do(a) Catfish And The Bottlemen
Top cifras »Top artistas »
Petaxxon Comunicação Online
Cifras.com.br - Melhor e mais completo site de cifras e tablaturas do Brasil
Mais de 1 milhão de acordes de músicas cadastradas desde 2003
As informações contidas no nosso site são colaborações de seus usuários e podem conter erros, sendo assim, não nos responsabilizamos sobre nenhuma destas.
close
menos
mais
close
Cor dos acordes:

Cor da letra:

 

save
close
close
 
redimensionar