Cifras e Tablaturas
Chad Pab

Chad Pab

Classical Elements

Cifras Cancelar Versão de Impressão
cifras

Chad Pab - Classical Elements

fixar na tela  
Exibindo: vídeo-aula ver clipes redimensionar
  
First Verse: 
   I am the man   born on the hill  no one ever sees me and   no one ever will the 
c|-9--------------8-----------------7-------------------------6--------------| 
A|-7--------------7-----------------7-------------------------7--------------| 
F|-7--------------7-----------------7-------------------------7--------------| 
C|-9--------------9-----------------9-------------------------9--------------| 
G|---------------------------------------------------------------------------| 
D|---------------------------------------------------------------------------| 


   hill is green its   one you've seen so many times before, its the one outside your front door. 
c|---------------------------------------------------------------------------| 
A|-8-------------------7-----------------------------------------------------| 
F|-9-------------------7-----------------------------------------------------| 
C|-10------------------9-----------------------------------------------------| 
G|---------------------------------------------------------------------------| 
D|---------------------------------------------------------------------------| 

Second Verse: 
I am the man born in the sea 
Open mind and hospitality  
The sea is blue, it's one you knew 
While you were guarding the waves 
c|---------0-----------------------------------------------------------------| 
A|-------0---0-----------1-0-1-----------------------------------------------| 
F|-----0-------0-------0-------0---------------------------------------------| 
C|---4-----------4---4-----------4-------------------------------------------| 
G|-2---------------2---------------------------------------------------------| 
D|---------------------------------------------------------------------------| 

There's one you forgot to save 
c|---------9---------------7---------------5---------------7-----------------| 
A|-----0-------0-------0-------0-------0-------0-------0-------0-------------| 
F|---7---7---7---7---6---6---6---6---4---4---4---4---6---6---6---6-----------| 
C|-9---------------7---------------5---------------7-------------------------| 
G|---------------------------------------------------------------------------| 
D|---------------------------------------------------------------------------| 

c|--------0---------------0---------------0----------------------------------| 
A|-----0------0-------0-------0-------0-------0------------------------------| 
F|---7--7---7---7---6---6---6---6---4---4---4---4----------------------------| 
C|-9--------------7---------------5------------------------------------------| 
G|---------------------------------------------------------------------------| 
D|---------------------------------------------------------------------------| 

c|---------------------------------------------------------------------------| 
A|-----0-------0-------0-------0---------------------------------------------| 
F|---0---0---0---0---0---0---0---0-------------------------------------------| 
C|-4-------4-------4-------4-------------------------------------------------| 
G|---------------------------------------------------------------------------| 
D|---------------------------------------------------------------------------| 

Third verse 
I am the man born in the air 
You'll never see me, or see me care 
The air's clear, its easy to hear 
The voices of everyone 

c|---------0--------------------------------0-----------------------------------| 
A|-------0---0--------------0-------------0---0---------0-----0-----------------| 
F|-----0-------0-------0-/5---5p0h2-----0-------0-------0-----0-----------------| 
C|---4-----------4---4----------------4-----------4---4-----4-------------------| 
G|-2---------------0--------------------------------------------1---------------| 
D|----------------------------------0---------------0-----3---------------------| 

Talking between the earth and sun 
c|---------9---------------7---------------5---------------7-----------------| 
A|-----0-------0-------0-------0-------0-------0-------0-------0-------------| 
F|---7---7---7---7---6---6---6---6---4---4---4---4---6---6---6---6-----------| 
C|-9---------------7---------------5---------------7-------------------------| 
G|---------------------------------------------------------------------------| 
D|---------------------------------------------------------------------------| 

c|--------0---------------0---------------0----------------------------------| 
A|-----0------0-------0-------0-------0-------0------------------------------| 
F|---7--7---7---7---6---6---6---6---4---4---4---4----------------------------| 
C|-9--------------7---------------5------------------------------------------| 
G|---------------------------------------------------------------------------| 
D|---------------------------------------------------------------------------| 

c|---------------------------------------------------------------------------| 
A|-----0-------0-------0-------0---------------------------------------------| 
F|---0---0---0---0---0---0---0---0-------------------------------------------| 
C|-4-------4-------4-------4-------------------------------------------------| 
G|---------------------------------------------------------------------------| 
D|---------------------------------------------------------------------------| 

Fourth verse 
I am the man born in the fire 
You'll face me but your back is a liar 
The fire's hot, you need I've got 
The things that were said 
About the price on your head 
c|---4-4-4-4-7-7-7-----9\-4-----4-----4------------------------------------------| 
A|---0-0-0-0----------------0-----0----------------------------------------------| 
F|---0-0-0-0-7-7-7-----9\-----0-----0--------------------------------------------| 
C|---4-4-4-4---------------------------------------------------------------------| 
G|-2---------0-0-0--------------------1------------------------------------------| 
D|-----------------0-0----0-----3------------------------------------------------| 

End on 
c|-0--------------------------------------------------------------------------| 
A|-0--------------------------------------------------------------------------| 
F|-0--------------------------------------------------------------------------| 
C|-4--------------------------------------------------------------------------| 
G|-2--------------------------------------------------------------------------| 
D|---------------------------------------------------------------------------| 
Thanks 
***** 

| /   slide up 
| \   slide down 
| h   hammer-on 
| p   pull-off 
| ~   vibrato 
| +   harmonic 
| x   Mute note 
| b   Bend 
| pb  Pre-bend 
| br  Bend release 
| pbr Pre-bend release 
| brb Bend release bend 

************************************ 
  

top 5 | chad pab
top rock'n roll
Outras músicas do artista letras do(a) Chad Pab
Top cifras »Top artistas »
Petaxxon Comunicação Online
Cifras.com.br - Melhor e mais completo site de cifras e tablaturas do Brasil
Mais de 1 milhão de acordes de músicas cadastradas desde 2003
As informações contidas no nosso site são colaborações de seus usuários e podem conter erros, sendo assim, não nos responsabilizamos sobre nenhuma destas.
close
menos
mais
close
Cor dos acordes:

Cor da letra:

 

save
close
close
 
redimensionar