Cifras e Tablaturas
Charlie Brown Jr.

Charlie Brown Jr.

Tâmo aí na Atividade Tablatura Verificada

Ano: 2005
Album : Tamo Ai Na Atividade

Cifras Cancelar Versão de Impressão
cifras

Charlie Brown Jr. - Tâmo aí na Atividade

fixar na tela  
Exibindo: vídeo-aula ver clipes redimensionar

Tom:

  
Intro 
e|---------------------------------------------------------------- 
B|------------------------------------------------2h4------------- 
G|----------6----------------------6------------------3----------- 
D|------6-8-----8-6--6h8~------6-8---8-6-------------------------- 
A|--6h8--------------------6h8-----------4h6p4-------------------- 
E|---------------------------------------------6------------------ 


Verso 
    (A#m)     (D#m)   
e|-----6-6-------6-6---------------------------------------------- 
B|-----6-6-------7-7---------------------------------------------- 
G|-----6-6-------8-8---------------------------------------------- 
D|-----8-8-------8-8---------------------------------------------- 
A|---------------------------------------------------------------- 
E|---------------------------------------------------------------- 

Lick 
e|-6----------------------------6--------------------------------- 
B|-6----------------------------6--------------------------------- 
G|-6----------------------------6--------------------------------- 
D|---------------------------------------------------------------- 
A|---1-1-1-1-4-1---4/6-4-1---1----1-1-1-1-4-1---4/6-4-1---1------- 
E|---------------4---------4------------------4---------4--------- 

Riff Refrão 
e|---------------------------16----------------------------------- 
B|---16b-16----14-16------14-----16b-16----14-16-----14-16-------- 
G|----------15-------15~----------------15-------15~-------------- 
D|---------------------------------------------------------------- 
A|---------------------------------------------------------------- 
E|---------------------------------------------------------------- 

e|---------------------------16----------------------------------- 
B|---16b-16----14-16------14-----16b-16----14-16------------------ 
G|----------15-------15~----------------15-------15~-------------- 
D|---------------------------------------------------------------- 
A|---------------------------------------------------------------- 
E|---------------------------------------------------------------- 


Refrão (4x) 
e|---------------------------------------------------------------- 
B|---------------------------------------------------------------- 
G|---------------------------------------------------------------- 
D|--8-8-8-8-----6h8-6-----6--------------------------------------- 
A|--8-8-8-8-----------8-6---8------------------------------------- 
E|--6-6-6-6-------------------9----------------------------------- 


Solo Refrão 2 
e|--------------------------16--------------------------------6--- 
B|--16b-16----14-16------14-----16b-16----14-16-----14-13-12--6--- 
G|---------15-------15~----------------15-------15~-----------6--- 
D|---------------------------------------------------------------- 
A|---------------------------------------------------------------- 
E|---------------------------------------------------------------- 

e|-16\-15\---------------4-----4-----3-----3/13------------------- 
B|----------13\-14\----2-----2-----2-----2------------------------ 
G|-------------------3-----3-----3-----3-------------------------- 
D|---------------------------------------------------------------- 
A|---------------------------------------------------------------- 
E|---------------------------------------------------------------- 


Especial (8x) 
  (A#5) 
e|---------------------------------------------------------------- 
B|---------------------------------------------------------------- 
G|---------------------------------------------------------------- 
D|---8-8---------------------------------------------------------- 
A|---8-8---------------------------------------------------------- 
E|---6-6---------------------------------------------------------- 


Refrão Final 
(A#5)                    
e|---------------------------------------------------------------- 
B|---------------------------------------------------------------- 
G|---------------------------------------------------------------- 
D|--8-8-8-8--6h8-6-----6-------8-8-8-8--6h8-6-----6--------------- 
A|--8-8-8-8--------8-6---8-----8-8-8-8--------8-6---8------------- 
E|--6-6-6-6----------------9---6-6-6-6----------------9----------- 

(C#5) 
e|---------------------------------------------------------------- 
B|---------------------------------------------------------------- 
G|---------------------------------------------------------------- 
D|--11-11-11-11--6h8-6-----6-------11-11-11-11--6h8-6-----6------- 
A|--11-11-11-11--------8-6---8-----11-11-11-11--------8-6---8----- 
E|--9--9--9--9-----------------9---9--9--9--9-----------------9--- 


Final                                   2x 
e|-----------------------------------|----6--6-------------------- 
B|-----------------------------------|----6--6-------------------- 
G|-----------------------------13h15-|----6--6-------------------- 
D|--10h11p10-----10h11p10------------|---------------------------- 
A|-----------13~-----------13~-------|---------------------------- 
E|-----------------------------------|---------------------------- 

e|---------------------------------------------------------------- 
B|---------------------------------------------------------------- 
G|---------------------------------------------------------------- 
D|---------------------------------------------------------------- 
A|--10h11p10-----13h15----10h11p10-------------------------------- 
E|-----------13~-------------------13~--11-11-11h13--------------- 

  

cifra enviadacorrigido por:iagovillareal
enviado poranônimo
top 5 | charlie brown jr.
top rock alternativo
Outras músicas do artista letras do(a) Charlie Brown Jr.
Top cifras »Top artistas »
Petaxxon Comunicação Online
Cifras.com.br - Melhor e mais completo site de cifras e tablaturas do Brasil
Mais de 1 milhão de acordes de músicas cadastradas desde 2003
As informações contidas no nosso site são colaborações de seus usuários e podem conter erros, sendo assim, não nos responsabilizamos sobre nenhuma destas.
close
menos
mais
close
Cor dos acordes:

Cor da letra:

 

save
close
close
 
redimensionar