Cifras e Tablaturas
Chaves

Chaves

Chaves Tema Triste

Cifras Cancelar Versão de Impressão
cifras

Chaves - Chaves Tema Triste

fixar na tela  
Exibindo: vídeo-aula ver clipes redimensionar
  
Intro: A  A7 

( A  A7  D  A/C#  Bm  E ) 

( A  A7  D  C#m  Bm E  A ) 

Solo 

E|-------------------------------------------------| 
B|-------------------------------------------------| 
G|--6-7-9-7-6----7-6-7----6-7-6--------------------| 
D|----------------7---------9---------9-7-11-9-11--| 
A|-------------------------------------------------| 
E|-------------------------------------------------| 


E|-------------------------------------------------| 
B|-------------------------------------------------| 
G|-------6----------------------------------6-4-6--| 
D|--7-9---9-7----9-7-9--6-7-9-7-6-7----------------| 
A|---------------5---------------------------------| 
E|-------------------------------------------------| 


E|-----------------------------------------------------| 
B|-------------------7-5-7--7-9-10-9-7-9---------------| 
G|--6-7-9-7-6------------------------------------------| 
D|----------------7----------------------------11-9-11-| 
A|-----------------------------------------------------| 
E|-----------------------------------------------------| 


E|-----------------------------------------------------| 
B|-----------------------------------------------------| 
G|--6-7-9-7-6------------------------------------------| 
D|-------------------9-7-9--6-7-9-7-6-7----------------| 
A|----------------9------------------------------------| 
E|-----------------------------------------------------| 


E|-----------------------------------------------------| 
B|-----------------------------------------------------| 
G|--9-7-9----------------------------------------------| 
D|----------11-9-11--7-6-7--2-0-2----------------------| 
A|----------------------------------------4-2-4--------| 
E|-----------------------------------------------------| 
  

cifra enviadasem correções
enviado porenviada por:hebealmeida
top 5 | chaves
top diversos
Outras músicas do artista letras do(a) Chaves
Top cifras »Top artistas »
Petaxxon Comunicação Online
Cifras.com.br - Melhor e mais completo site de cifras e tablaturas do Brasil
Mais de 1 milhão de acordes de músicas cadastradas desde 2003
As informações contidas no nosso site são colaborações de seus usuários e podem conter erros, sendo assim, não nos responsabilizamos sobre nenhuma destas.
close
menos
mais
close
Cor dos acordes:

Cor da letra:

 

save
close
close
 
redimensionar