Cifras e Tablaturas
Cheap Trick

Cheap Trick

Born To Raise Hell

Ano: 1996
Album : Sex, America, Cheap Trick

Cifras Cancelar Versão de Impressão
cifras

Cheap Trick - Born To Raise Hell

fixar na tela  
Exibindo: vídeo-aula ver clipes redimensionar

Tom:

  
Intro 
                                         
e|---------------------------------------------------------------------------| 
B|---------3-3-3-------------------3-----------------------------------------| 
G|---------2-2-2-------------------2-----------------------------------------| 
D|-----0---0-0-0-------------------0-----------------------------------------| 
A|-----0---0-0-0---3-2-0-----------0----------------—------—-------—---------| 
D|-3b--0---0-0-0----------3b-0-3b--0-----------------------------------------| 

e|---------------------------------------------------------------------------| 
B|---------3-3-3-------------------3-----------------------------------------| 
G|---------2-2-2-------------------2-----------------------------------------| 
D|-----0---0-0-0-------------------0---3-0-3-0-------------------------------| 
A|-----0---0-0-0---3-2-0-----------0---3-0-3-0-------------------------------| 
D|-3b--0---0-0-0----------3b-0-3b--0---3-0-3-0-------------------------------| 

Verse 
                       x3 
e|---------------------------------------------------------------------------| 
B|---------------6--8--------------------------------------------------------| 
G|-2-2-2-2-2-2---5--7--------------------------------------------------------| 
D|-0-0-0-0-0-0---------------------------------------------------------------| 
A|-0-0-0-0-0-0---------------------------------------------------------------| 
D|-0-0-0-0-0-0---------------------------------------------------------------| 

Don't need you, I don't need this town 
Don't trust you, don't trust anyone around 
Can't stand you, ain't gonna stick around 

Chorus 
                    x2 
e|---------------------------------------------------------------------------| 
B|-3-------------------------------------------------------------------------| 
G|-2-------------------------------------------------------------------------| 
D|-0---3-0-3-0-3-0-----------------------------------------------------------| 
A|-0---3-0-3-0-3-0-----------------------------------------------------------| 
D|-0-–-3-0-3-0-3-0-----------------------------------------------------------| 

I wasn't born for lovin' 
I was born to raise hell 
I wasn't born for lovin' 
I was born to raise hell 

Verse 
                       x3 
e|---------------------------------------------------------------------------| 
B|---------------6--8--------------------------------------------------------| 
G|-2-2-2-2-2-2---5--7--------------------------------------------------------| 
D|-0-0-0-0-0-0---------------------------------------------------------------| 
A|-0-0-0-0-0-0---------------------------------------------------------------| 
D|-0-0-0-0-0-0---------------------------------------------------------------| 

I hate you and I hate this town 
I mean you and this pitiful town 
I hate you, you just make me laugh 

Chorus 
                    x2 
e|---------------------------------------------------------------------------| 
B|-3-------------------------------------------------------------------------| 
G|-2-------------------------------------------------------------------------| 
D|-0---3-0-3-0-3-0-----------------------------------------------------------| 
A|-0---3-0-3-0-3-0-----------------------------------------------------------| 
D|-0-–-3-0-3-0-3-0-----------------------------------------------------------| 


I wasn't born for lovin' 
I was born to raise hell 
I wasn't born for lovin' 
I was born to raise hell 

Verse 

e|-------------------------------------------------------------—-------------| 
B|-3--3-3-3-------3---3--3-3-3-------3---3--3-3-3-----------—---------—-—----| 
G|-1--1-1-1-------2---1--1-1-1-------2---1--1-1-1-------2--------------------| 
D|-0--0-0-0--3p0--0---0--0-0-0--3p0--0---0--0-0-0--3p0--2--------------------| 
A|-2--2-2-2--3p0--0---2--2-2-2--3p0--0---2--2-2-2--3p0--0--------------------| 
D|-----------3p0----------------3p0----------------3p0-----------------------| 

I hate you, you like me? No! 
You like our music, now don't you? No! 
It's such a pity, now 
You want me to go 

Verse 
                       x3 
e|---------------------------------------------------------------------------| 
B|---------------6--8--------------------------------------------------------| 
G|-2-2-2-2-2-2---5--7--------------------------------------------------------| 
D|-0-0-0-0-0-0---------------------------------------------------------------| 
A|-0-0-0-0-0-0---------------------------------------------------------------| 
D|-0-0-0-0-0-0---------------------------------------------------------------| 

A lot of talk, not enough action 
Lot of lies but no real reaction 
Lot of ways but no real emotion 

Chorus 
                     x2 
e|---------------------------------------------------------------------------| 
B|-3-------------------------------------------------------------------------| 
G|-2-------------------------------------------------------------------------| 
D|-0---3-0-3-0-3-0-----------------------------------------------------------| 
A|-0---3-0-3-0-3-0-----------------------------------------------------------| 
D|-0-–-3-0-3-0-3-0-----------------------------------------------------------| 

I wasn't born for lovin' 
I was born to raise hell 
I wasn't born for lovin' 
I was born to raise hell 


Verse 

e|-------------------------------------------------------------—-------------| 
B|-3--3-3-3-------3---3--3-3-3-------3---3--3-3-3-----------—---------—-—----| 
G|-1--1-1-1-------2---1--1-1-1-------2---1--1-1-1-------2--------------------| 
D|-0--0-0-0--3p0--0---0--0-0-0--3p0--0---0--0-0-0--3p0--2--------------------| 
A|-2--2-2-2--3p0--0---2--2-2-2--3p0--0---2--2-2-2--3p0--0--------------------| 
D|-----------3p0----------------3p0----------------3p0-----------------------| 

I hate you and you like me? No! 
You like our music, now don't ya? No! 
It's such a pity now you want me to go 

Bridge 

e|------------------------------------------------------------------—--------| 
B|---------------------------------------------------------------------------| 
G|-5-6--4-6----6--–4---5-6--4-6----6---4—--4---4---4---4---------------------| 
D|-----------5---3---------------5---3---3---3---3---3---3-------------------| 
A|--------------------------------------------------------------------—------| 
D|---------------------------------------------------------------------------| 



You're so pretty, you’re so pretty 
You're so fair, love your hair 
Hahaha! 
You're so pretty, you’re so pretty 
Love your makeup, love your nose 
Love your eyes, love your clothes 
You're pretty useless! 

N.C. 
I hate... 


Verse 

                      x3 
e|---------------------------------------------------------------------------| 
B|---------------6--8--------------------------------------------------------| 
G|-2-2-2-2-2-2---5--7--------------------------------------------------------| 
D|-0-0-0-0-0-0---------------------------------------------------------------| 
A|-0-0-0-0-0-0---------------------------------------------------------------| 
D|-0-0-0-0-0-0---------------------------------------------------------------| 


...you and I hate this town 
I mean you and this pitiful town 
I hate you, you just make me laugh 
  

Chorus 
                    x2 
e|---------------------------------------------------------------------------| 
B|-3-------------------------------------------------------------------------| 
G|-2-------------------------------------------------------------------------| 
D|-0---3-0-3-0-3-0-----------------------------------------------------------| 
A|-0---3-0-3-0-3-0-----------------------------------------------------------| 
D|-0-–-3-0-3-0-3-0-----------------------------------------------------------| 

I wasn't born for lovin' 
I was born to raise hell 
I wasn't born for lovin' 
I was born to raise hell 
  

top 5 | cheap trick
top rock'n roll
Outras músicas do artista letras do(a) Cheap Trick
Top cifras »Top artistas »
Petaxxon Comunicação Online
Cifras.com.br - Melhor e mais completo site de cifras e tablaturas do Brasil
Mais de 1 milhão de acordes de músicas cadastradas desde 2003
As informações contidas no nosso site são colaborações de seus usuários e podem conter erros, sendo assim, não nos responsabilizamos sobre nenhuma destas.
close
menos
mais
close
Cor dos acordes:

Cor da letra:

 

save
close
close
 
redimensionar