Cifras e Tablaturas
Cheerleader

Cheerleader

Haunted Love

Cifras Cancelar Versão de Impressão
cifras

Cheerleader - Haunted Love

fixar na tela  
Exibindo: vídeo-aula ver clipes redimensionar

Tom:

  
Intro 

(0:00-0:21) 

e|--5-7-5-7---------------|--5-7-5-7-5---------------|---5-7-5-7-5---------------| 
B|-----------7-10-7-10-7--|-------------7-10-7-10-7--|--------------7-10-7-10-7--| 
G|------------------------|--------------------------|---------------------------| 
D|------------------------|--------------------------|---------------------------| 
A|------------------------|--------------------------|---------------------------| 
E|------------------------|--------------------------|---------------------------| 

e|--5-7-5-7-5---------------|--5-7-5-7-5---------------|---5-7-5-7-5-------------------| 
B|-------------7-10-7-10-7--|-------------7-10-7-10-7--|--------------7-10-7-10-7-10~--| 
G|--------------------------|--------------------------|-------------------------------| 
D|--------------------------|--------------------------|-------------------------------| 
A|--------------------------|--------------------------|-------------------------------| 
E|--------------------------|--------------------------|-------------------------------| 


verse 1 

(0:33-0:41) 

e|--------------|---------------|----------| 
B|--7~----5~----|--3~----2~-----|----------| 
G|--------------|---------------|--4~------| 
D|--------------|---------------|----------| 
A|--------------|---------------|----------| 
E|--------------|---------------|----------| 


Chorus 

(1:14-1:27) 

e|----------------|--------------------|----------------|--------------------| 
B|--7-7---7-------|----------7h8p7~----|--7-7---7-------|----------7h8p7~----| 
G|------9---7~----|------7-9-----------|------9---7~----|------7-9-----------| 
D|----------------|--9-9---------------|----------------|--9-9---------------| 
A|----------------|--------------------|----------------|--------------------| 
E|----------------|--------------------|----------------|--------------------| 


Bridge 

(1:27-1:42) 

e|--5-7-5-7-5---------------|--5-7-5-7-5---------------|---5-7-5-7-5---------------| 
B|-------------7-10-7-10-7--|-------------7-10-7-10-7--|--------------7-10-7-10-7--| 
G|--------------------------|--------------------------|---------------------------| 
D|--------------------------|--------------------------|---------------------------| 
A|--------------------------|--------------------------|---------------------------| 
E|--------------------------|--------------------------|---------------------------| 

e|---5-7-5-7-5-------------------| 
B|--------------7-10-7-10-7-10~--| 
G|-------------------------------| 
D|-------------------------------| 
A|-------------------------------| 
E|-------------------------------| 


verse 2 

(No lead guitar) 


Chorus 

(2:35-2:48) 

e|----------------|--------------------|----------------|--------------------| 
B|--7-7---7-------|----------7h8p7~----|--7-7---7-------|----------7h8p7~----| 
G|------9---7~----|------7-9-----------|------9---7~----|------7-9-----------| 
D|----------------|--9-9---------------|----------------|--9-9---------------| 
A|----------------|--------------------|----------------|--------------------| 
E|----------------|--------------------|----------------|--------------------| 


Bridge 

(No lead guitar) 


Chorus 

(3:04-3:18) 

e|--5-7-5-7-5---------------|--5-7-5-7-5---------------|---5-7-5-7-5---------------| 
B|-------------7-10-7-10-7--|-------------7-10-7-10-7--|--------------7-10-7-10-7--| 
G|--------------------------|--------------------------|---------------------------| 
D|--------------------------|--------------------------|---------------------------| 
A|--------------------------|--------------------------|---------------------------| 
E|--------------------------|--------------------------|---------------------------| 

e|--5-7-5-7-5---------------| 
B|-------------7-10-7-10-7--| 
G|--------------------------| 
D|--------------------------| 
A|--------------------------| 
E|--------------------------| 


Outro 

(3:18-3:40) 

e|--5-7-5-7-5---------------|--5-7-5-7-5---------------|---5-7-5-7-5---------------| 
B|-------------7-10-7-10-7--|-------------7-10-7-10-7--|--------------7-10-7-10-7--| 
G|--------------------------|--------------------------|---------------------------| 
D|--------------------------|--------------------------|---------------------------| 
A|--------------------------|--------------------------|---------------------------| 
E|--------------------------|--------------------------|---------------------------| 

e|--5-7-5-7-5---------------|-5-7-5-7-5---------------|--5-7-5-7-5----------------------| 
B|-------------7-10-7-10-7--|------------7-10-7-10-7--|-------------7-10-7-10-7-10~-7~--| 
G|--------------------------|-------------------------|---------------------------------| 
D|--------------------------|-------------------------|---------------------------------| 
A|--------------------------|-------------------------|---------------------------------| 
E|--------------------------|-------------------------|---------------------------------| 


************************************ 

| h   Hammer-on 
| p   Pull-off 
| ~   Vibrato 

************************************ 
  

top 5 | cheerleader
top rock'n roll
Outras músicas do artista letras do(a) Cheerleader
Top cifras »Top artistas »
Petaxxon Comunicação Online
Cifras.com.br - Melhor e mais completo site de cifras e tablaturas do Brasil
Mais de 1 milhão de acordes de músicas cadastradas desde 2003
As informações contidas no nosso site são colaborações de seus usuários e podem conter erros, sendo assim, não nos responsabilizamos sobre nenhuma destas.
close
menos
mais
close
Cor dos acordes:

Cor da letra:

 

save
close
close
 
redimensionar