Cifras e Tablaturas
Chevelle

Chevelle

Last Days

Cifras Cancelar Versão de Impressão
cifras

Chevelle - Last Days

fixar na tela  
Exibindo: vídeo-aula ver clipes redimensionar

Tom:

  
Intro 

Guitar rests while the Bass plays this (in 9/8): 

F|------------------|------------------| 
C|------------------|------------------| 
G|------3p0---5-----|------------------| 
C|0---------3-------|0-----3p2p0h2-----| 
                                                           X2 
F|------------------|------------------|------------------| 
C|------------------|------------------|------------------| 
G|------3p0---5-----|------------------|------------------| 
C|0---------3-------|0-----8p7p5h7-----|0-----3-----------| 


Verse 
                     PM                                PM 
D|----------------|----------------|----------------|----------------| 
A|----------------|----------------|----------------|----------------| 
F|----------------|----------------|----------------|----------------| 
C|0---------------|----------------|0---------------|----------------| 
G|0---------------|--3-3-3-3-3-3-3-|0---------------|--3-3-3-3-3-3-3-| 
C|0---------------|--3-3-3-3-3-3-3-|0---------------|--3-3-3-3-3-3-3-| 

                     PM             PM        PS 
D|----------------|----------------|----------------| 
A|----------------|----------------|----------------| 
F|----------------|----------------|----------------| 
C|0---------------|----------------|----------------| 
G|0---------------|--3-3-3-3-3-3-3-|3-3-3-3-3-x\\\\x| 
C|0---------------|--3-3-3-3-3-3-3-|3-3-3-3-3-x\\\\x| 


Chorus 

D|--------------------------------|--------------------------------| 
A|--------------------------------|--------------------------------| 
F|--------------------------------|--------------------------------| 
C|--------------------------------|--------------------------------| 
G|3p2p0-------3~--5-------3-------|3p2p0-------3~--5-------12\-----| 
C|3p2p0-----------5---------5---0-|3p2p0-----------5-------12\-----| 

                                                                    x2 
D|--------------------------------|--------------------------------| 
A|--------------------------------|--------------------------------| 
F|--------------------------------|--------------------------------| 
C|--------------------------------|--------------------------------| 
G|3p2p0-------3~--5-------3-------|3p2p0-------3~--5-------3-------| 
C|3p2p0-----------5---------5---0-|3p2p0-----------5-------3-------| 


Break 

D|------------------| 
A|------------------| 
F|------------------| Hold while Bass plays 
C|0-----------------| intro riff one time 
G|0-----------------| 
C|0-----------------| 


Verse 
                     PM                                PM 
D|----------------|----------------|----------------|----------------| 
A|----------------|----------------|----------------|----------------| 
F|----------------|----------------|----------------|----------------| 
C|0---------------|----------------|0---------------|----------------| 
G|0---------------|--3-3-3-3-3-3-3-|0---------------|--3-3-3-3-3-3-3-| 
C|0---------------|--3-3-3-3-3-3-3-|0---------------|--3-3-3-3-3-3-3-| 

                     PM        PS 
D|----------------|----------------| 
A|----------------|----------------| 
F|----------------|----------------| 
C|0---------------|----------------| 
G|0---------------|--3-3-3-3-3-x\\x| 
C|0---------------|--3-3-3-3-3-x\\x| 


Chorus 

D|--------------------------------|--------------------------------| 
A|--------------------------------|--------------------------------| 
F|--------------------------------|--------------------------------| 
C|--------------------------------|--------------------------------| 
G|3p2p0-------3~--5-------3-------|3p2p0-------3~--5-------12\-----| 
C|3p2p0-----------5---------5---0-|3p2p0-----------5-------12\-----| 

                                                                    x2 
D|--------------------------------|--------------------------------| 
A|--------------------------------|--------------------------------| 
F|--------------------------------|--------------------------------| 
C|--------------------------------|--------------------------------| 
G|3p2p0-------3~--5-------3-------|3p2p0-------3~--5-------3-------| 
C|3p2p0-----------5---------5---0-|3p2p0-----------5-------3-------| 


Bridge 

D|--------------------------------|--------------------------------| 
A|--------------------------------|--------------------------------| 
F|--------------------------------|--------------------------------| 
C|--------------------------------|--------------------------------| x3 
G|6p5p3h5~----6p5p3h5~------------|6p5p3h5~----6p5p3h5~----x\x\x\x-| 
C|------------------------0-------|------------------------x\x\x\x-| 


D|--------------------------------|--------------------------------| 
A|--------------------------------|--------------------------------| 
F|--------------------------------|--------------------------------| 
C|--------------------------------|--------------------------------| 
G|6p5p3h5~----6p5p3h5~------------|6p5p3h5~----6p5p3h5/8~8~8~8!----| 
C|------------------------0-------|--------------------------------| 

  Overdub (w/ wah) 
D|--------------------------------|--------------------------------| 
A|--------------------------------|--------------------------------| 
F|7---5---7---8---7---5---7---8---|7---5---7---8--/10--8---7---5---| 
C|--------------------------------|--------------------------------| 
G|--------------------------------|--------------------------------| 
C|--------------------------------|--------------------------------| 
 | 
D|--------------------------------|--------------------------------| 
A|--------------------------------|--------------------------------| 
F|--------------------------------|--------------------------------| 
C|13p12p10h12-0-----------12-12-12|12/10---------------------0-----| 
G|13p12p10h12-0-----------12-12-12|12/10---------------------0-----| 
C|13p12p10h12-0-----------12-12-12|12/10---------------------0-----| 


D|--------------------------------|--------------------------------| 
A|--------------------------------|--------------------------------| 
F|7---5---7---8---7---5---7---8---|7---5---7---8--/10--8---7---5---| 
C|--------------------------------|--------------------------------| 
G|--------------------------------|--------------------------------| 
C|--------------------------------|--------------------------------| 
 | 
D|--------------------------------|--------------------------------| 
A|--------------------------------|--------------------------------| 
F|--------------------------------|--------------------------------| 
C|13p12p10h12-0-----------12-12-12|12/10-------------5-5-5---3-3-3-| 
G|13p12p10h12-0-----------12-12-12|12/10-------------5-5-5---3-3-3-| 
C|13p12p10h12-0-----------12-12-12|12/10-------------5-5-5---3-3-3-| 


D|--------------------------------|--------------------------------| 
A|--------------------------------|--------------------------------| 
F|7---5---7---8---7---5---7---8---|7---5---7---8--/10--8---7---5---| 
C|--------------------------------|--------------------------------| 
G|--------------------------------|--------------------------------| 
C|--------------------------------|--------------------------------| 
 | 
D|--------------------------------|--------------------------------| 
A|--------------------------------|--------------------------------| 
F|--------------------------------|--------------------------------| 
C|13p12p10h12-0-----------12-12-12|12/10---------------------0-----| 
G|13p12p10h12-0-----------12-12-12|12/10---------------------0-----| 
C|13p12p10h12-0-----------12-12-12|12/10---------------------0-----| 


D|--------------------------------|--------------------------------| 
A|--------------------------------|--------------------------------| 
F|7---5---7---8---7---5---7---8---|7---5---7---8--/10--8---7---5---| 
C|--------------------------------|--------------------------------| 
G|--------------------------------|--------------------------------| 
C|--------------------------------|--------------------------------| 
 | 
D|--------------------------------|--------------------------------| 
A|--------------------------------|--------------------------------| 
F|--------------------------------|--------------------------------| 
C|13p12p10h12-0-----------12-12-12|12/10-------------5-5-5-12\-----| 
G|13p12p10h12-0-----------12-12-12|12/10-------------5-5-5-12\-----| 
C|13p12p10h12-0-----------12-12-12|12/10-------------5-5-5-12\-----| 


D|--------------------------------|--------------------------------| 
A|--------------------------------|--------------------------------| 
F|--------------------------------|--------------------------------| 
C|--------------------------------|--------------------------------| 
G|2/3-0-----0---0-2/3-0---x-x-x-x-|2/3-0-----0---0-2/3-0---x-x-x-x-| 
C|2/3-0-----0---0-2/3-0---x-x-x-x-|2/3-0-----0---0-2/3-0---x-x-x-x-| 


D|--------------------------------|--------------------------------| 
A|--------------------------------|--------------------------------| 
F|--------------------------------|--------------------------------| 
C|--------------------------------|--------------------------------| 
G|2/3-0-----0---0-2/3-0---x-x-x-x-|2/3-0-----0---0-0---------------| 
C|2/3-0-----0---0-2/3-0---x-x-x-x-|2/3-0-----0---0-0---------------| 


Chorus 

  Overdub w/ wah 
D|--------------------------------|--------------------------------| 
A|6-6-6-6-6-6-6-6-8-8-8-8-8-8-8-8-|6-6-6-6-6-6-6-6-8-8-8-8-8-8-8-8-| 
F|--------------------------------|--------------------------------| 
C|--------------------------------|--------------------------------| 
G|--------------------------------|--------------------------------| 
C|--------------------------------|--------------------------------| 
 | 
D|--------------------------------|--------------------------------| 
A|--------------------------------|--------------------------------| 
F|--------------------------------|--------------------------------| 
C|--------------------------------|--------------------------------| 
G|3p2p0-------3~--5-------3-------|3p2p0-------3~--5-------12\-----| 
C|3p2p0-----------5---------5---0-|3p2p0-----------5-------12\-----| 

                                                                    x3 
D|--------------------------------|--------------------------------| 
A|6-6-6-6-6-6-6-6-8-8-8-8-8-8-8-8-|6-6-6-6-6-6-6-6-8-8-8-8-8-8-8-8-| 
F|--------------------------------|--------------------------------| 
C|--------------------------------|--------------------------------| 
G|--------------------------------|--------------------------------| 
C|--------------------------------|--------------------------------| 
 | 
D|--------------------------------|--------------------------------| 
A|--------------------------------|--------------------------------| 
F|--------------------------------|--------------------------------| 
C|--------------------------------|--------------------------------| 
G|3p2p0-------3~--5-------3-------|3p2p0-------3~--5-------3-----0-| 
C|3p2p0-----------5---------5---0-|3p2p0-----------5-------3-----0-| 


D|--------------------------------|--------------------------------| 
A|8-8-8-8-8-8-8-8-8-8-8-8-8-8-8-8-|8-8-8-8-8-8-8-8-8-8-8-8-8-8-8-8-| 
F|--------------------------------|--------------------------------| 
C|--------------------------------|--------------------------------| 
G|--------------------------------|--------------------------------| 
C|--------------------------------|--------------------------------| 
 | 
D|--------------------------------|--------------------------------| 
A|--------------------------------|--------------------------------| 
F|--------------------------------|--------------------------------| 
C|--------------------------------|--------------------------------| 
G|3p2p0-------3~--5-------3-------|3p2p0-------3~--5-------12\-----| 
C|3p2p0-----------5---------5---0-|3p2p0-----------5-------12\-----| 


D|--------------------------------|--------------------------------| 
A|8-8-8-8-8-8-8-8-8-8-8-8-8-8-8-8-|8-8-8-8-8-8-8-8-8-8-8-8-8-8-8-8-| 
F|--------------------------------|--------------------------------| 
C|--------------------------------|--------------------------------| 
G|--------------------------------|--------------------------------| 
C|--------------------------------|--------------------------------| 
 | 
D|--------------------------------|--------------------------------| 
A|--------------------------------|--------------------------------| 
F|--------------------------------|--------------------------------| 
C|--------------------------------|--------------------------------| 
G|3p2p0-------3~--5-------3-------|3--------------/10------3-----0-| 
C|3p2p0-----------5---------5---0-|3--------------/10------3-----0-| 


End 

   rock wah w/ random feedback 
D|--------------------------------| 
A|8-------------------------------| 
F|--------------------------------| 
C|--------------------------------| 
G|--------------------------------| 
C|--------------------------------| 
 |                                   FADE OUT 
D|--------------------------------| 
A|--------------------------------| 
F|--------------------------------| 
C|--------------------------------| 
G|13p12p10h12-----0---------------| 
C|13p12p10h12-----0---------------| 



************************************ 

| /    Slide up 
| \    Slide down 
| h    Hammer-on 
| p    Pull-off 
| x    Dead note 
| PM   Palm mute 
| PS   Pick scrape 

************************************ 
  

top 5 | chevelle
top
Outras músicas do artista letras do(a) Chevelle
Top cifras »Top artistas »
Petaxxon Comunicação Online
Cifras.com.br - Melhor e mais completo site de cifras e tablaturas do Brasil
Mais de 1 milhão de acordes de músicas cadastradas desde 2003
As informações contidas no nosso site são colaborações de seus usuários e podem conter erros, sendo assim, não nos responsabilizamos sobre nenhuma destas.
close
menos
mais
close
Cor dos acordes:

Cor da letra:

 

save
close
close
 
redimensionar