Cifras e Tablaturas
Chico Buarque

Chico Buarque

João e MariaTablatura Verificada

Ano: 1991
Album : Focus

Cifras Cancelar Versão de Impressão

Chico Buarque - João e Maria

Tom: Am

  			  



 Introdução   

 e|----------------------0-----------------------0-----------|  
 B|------1---1-------0-----0-----1---1---------0---0---------|  
 G|----4---4---4---2---2-------4---4---4-----2---------------|  
 D|----------------------------------------0-----------------|  
 A|--0-----------------------0-------------------------------|  
 E|--------------3-----------------------3-------------------|  




 e|----------0-----------0-----------------------------------|  
 B|------1-----1-------0---0--1------------------------------|  
 G|----4---4---------2--------4------------------------------|  
 D|----------------0----------2------------------------------|  
 A|--0------------------------0------------------------------|  
 E|--------------3-------------------------------------------|  


Parte A  


 e|-8-7-5-0-1-3---1-0-----------3-1-0-------8-7-5h7p5p0-1-3--|  
 B|-------------3-----3-1-0---0-------1-3-5-----------------3|  
 G|-------------0-----------3---------2-4-5-----------------0|  
 D|-----------0---------------------------5---------------0--|  
 A|---------------------------------0-----0------------------|  
 E|---------------------0------------------------------------|  




 e|-1-0-----------1-0-3---------------------7----------------|  
 B|-----3-1-0---0-----1-1-1---5-6-8-6-5---7---7---7-8-10-8---|  
 G|-----------3-------0-0-0-------------8-----8--------------|  
 D|----------------------------------------------------------|  
 A|-------------------3-----3--------------------------------|  
 E|-------3-----------------------------7-------7------------|  




 e|-----------7----------7------8----------8-8------------10-|  
 B|---------8---8---8-10---10-8-8-8------------10------------|  
 G|-------9-----9---------------9---9----9--------10---10----|  
 D|-----------------------------------10-------------8-------|  
 A|-------7-------7--------------------------8---------------|  
 E|-----------------------------8----------------------------|  




 e|-7-------8-7-5-0-1-3---1-0-----------3-1-0-------8-7------|  
 B|---------------------3-----3-1-0---0-------1-3-5----------|  
 G|---9-9---------------0-----------3---------2-4-5----------|  
 D|---9-9-------------0---------------------------5----------|  
 A|-----------------------------------------0-----0----------|  
 E|-0-----0---------------------0----------------------------|  




 e|-5h7p5p0-1-3---1-0-----------1-0-3-------0-1/5-5-1--------|  
 B|-------------3-----3-1-0---0-----2-2-2---2---------3-1-0-1|  
 G|-------------0-----------3-------0-0-0---0----------------|  
 D|-----------0-----------------------------------0----------|  
 A|---------------------------------0-----0------------------|  
 E|---------------------0---------------------------------3--|  




 e|---1-0---3-----0-------------1-0-1-----------------1-0-4--|  
 B|-3-----3---1-----1-0---0-1---------3---3-------0-3--------|  
 G|-------------0-------2-----2---------3---3-2-1------------|  
 D|----------------------------------------------------------|  
 A|---------3------------------------------------------------|  
 E|---------------------1-----------------------0------------|  




 e|-5--7-8-4-5-----------------------------------------------|  
 B|------------4-5-------------------------------------------|  
 G|----------------4-5-2-3-----------------------------------|  
 D|------------------------2-3-------------------------------|  
 A|-0--------------------------2-3---0-----------------------|  
 E|--------------------------------4-------------------------|  



 Parte B  


 e|-0---1-1-0-0---1-1-0-0-1-0-1-3-1-0-----------1-0-3--------|  
 B|-1-------------------2-------------3---0-1-3-----1-1------|  
 G|-2-2---------1-------0-------------2-------------0-0------|  
 D|-2-2---------2---------------------3---------0------------|  
 A|-0-------------------0---------------------------3--------|  
 E|-----------0---------------------1---3---------------0----|  




 e|-------0-1---0---------------0---1-1-0-0---1-1-0-0-1-0-1-3|  
 B|---0-1-----3---1-0h1p0-------1-1---------0-------2--------|  
 G|-2---------------------2-1---2-2---------1-------0--------|  
 D|---------------------------3------------------------------|  
 A|-----------------------------0-------------------0--------|  
 E|-1-----------0-------------------------0------------------|  




 e|1-0-----5-3---------------0-------------------------------|  
 B|---3--3-----6-5---3-1-0-1---3-1-0-----0-------------------|  
 G|---2--4---------4-2-----------------1----2----------------|  
 D|---3--3-----------2---------------2------2----------------|  
 A|------------------0----------------------0----------------|  
 E|--1---3-----------------------1----------3----------------|  



Parte A  


 e|-8-7-5-0-1-3---1-0-----------1-0-3-------0-1/5-5-1--------|  
 B|-------------3-----3-1-0---0-----2-2-2---2---------3-1-0-1|  
 G|-------------0-----------3-------0-0-0---0----------------|  
 D|-----------0-----------------------------------0----------|  
 A|---------------------------------0-------0----------------|  
 E|---------------------0---------------------------------3--|  




 e|-5h7p5p0-1-3---1-0-----------1-0-3-------0-1/5-5-1--------|  
 B|-------------3-----3-1-0---0-----2-2-2---2---------3-1-0-1|  
 G|-------------0-----------3-------0-0-0---0----------------|  
 D|-----------0-----------------------------------0----------|  
 A|---------------------------------0-------0----------------|  
 E|---------------------0---------------------------------3--|  



 e|---1-0---3-----0-------------1-0-1-----------------1-0-4--|  
 B|-3-----3---1-----1-0---0-1---------3---3-------0-3--------|  
 G|-------------0-------2-----2---------3---3-2-1------------|  
 D|---------------------------------0------------------------|  
 A|---------3------------------------------------------------|  
 E|---------------------1-----------------------0------------|  




 e|-5--7-8-4-5-------------------------7---------------------|  
 B|------------4-5---------------------5---------------------|  
 G|----------------4-5-2-3-------------5---------------------|  
 D|------------------------2-3-------------------------------|  
 A|-0--------------------------2-3---0-0---------------------|  
 E|--------------------------------4-------------------------|  

    	
fixar
fixar inscrever-se

enviado porenviado por: Acelot
cifra enviadaCorrigida por: sem correções
logo top cifrasComente
ico música do artistaMúsicas deste artista
ico curtiuCurtiu?
ico destaqueDestaque
Petaxxon Comunicação Online

Cifras.com.br - Melhor e mais completo site de cifras e tablaturas do Brasil Mais de 1 milhão de acordes de músicas cadastradas desde 2003
As informações contidas no nosso site são colaborações de seus usuários e podem conter erros, sendo assim, não nos responsabilizamos sobre nenhuma destas.

close
menos
mais
close
Cor dos acordes:

Cor da letra:

close
Alinhar acordes a direita Alinhar acordes a esquerda Alinhar acordes em baixo Alinhar acordes no topo
close
  Mostrar todos os acordes Esconder acordes muito fáceis Esconder acordes fáceis Esconder acordes intermediários
redimensionar
glossário