Cifras e Tablaturas
Chico Buarque

Chico Buarque

Valsinha Tablatura Verificada

Ano: 1971
Album : Construcao
Compositor : (Chico Buarque / Vinicius de Moraes)

Cifras Cancelar Versão de Impressão
cifras

Chico Buarque - Valsinha

fixar na tela  
Exibindo: vídeo-aula ver clipes redimensionar

Tom:

  
Parte A:  


e|-------------------2--2--5--5--7--7--------------0--0--3--3--------|  
B|-0--1--0--0--4--4-----0-----4--------0--1--------------------0-----|  
G|----2-----2-----2-----2-----2--------------4--4--------------0-----|  
D|----1-----1-----4-----1-----------------------------------2--------|  
A|----2-----------------------------------------------2--------------|  
E|----------------------------------------0-----3--------------------|  



e|-------------------2--2--5--5--7--7--------------0--0--3--3--------|  
B|-0--1--0--0--4--4-----0-----4--------0--1--------------------0-----|  
G|----2-----2-----2-----2-----2--------------4--4--------------0-----|  
D|----1-----1-----4-----1-----------------------------------2--------|  
A|----2-----------------------------------------------2--------------|  
E|----------------------------------------0-----3--------------------|  



e|-0--1--0--0--4--4--7--7--10--10--12--12--------------5--5----------|  
B|----3-----3-----3-----6------9-------9---5--6--5--5----------------|  
G|----1-----1-----4-----7------10------10-----5-----5----------------|  
D|----------------3-----6------9-------9------------7----------------|  
A|----2---------------------------------------0----------------------|  
E|----0--------------------------------------------------------------|  




e|-8--8-----5--3--2--2--6--6--9--9--12--12--14--14-------------------|  
B|-------5-----2-----2-----5-----8------11------11--7--8--7----------|  
G|-------5-----3-----3-----6-----9------12------12-----8-------------|  
D|-------------2-----------5-----8------11------11-------------------|  
A|----0--------------------------------------------------------------|  
E|-----------------------------------------------------7-------------|  




e|------------7--7--8--8--7-8----7-----------------------------------|  
B|-7--10--10-----------7------10---8-10-7-8---7----------------------|  
G|-8-------------------8--------------------9---7-9----7-------------|  
D|-7-------------------7----------------------------10---9-10--------|  
A|-------------------------------------------------------------------|  
E|-------------------------------------------------------------------|  




e|-------------------------------------------------------------------|  
B|-------------------------------------------------------------------|  
G|-------------------------------------------------------------------|  
D|-7-9----7----------------------------------------------------------|  
A|-----10---9-10-7-9----7--------------------------------------------|  
E|-------------------10---8-10-7-8-5-7-------------------------------|  




Parte B:  



 e|----------------------2-7-5-5---3-3-2-3-2h3p2-0--------------------|  
 B|-0--1h0-------0-----4---------0-----------------0------------------|  
 G|----2---2---2-----4-----------0-------------------0----------------|  
 D|----1-----1-----4-----------------------------------2--------------|  
 A|----2--------------------------------------------------------------|  
 E|----------------------------0---------0----------------------------|  




 e|-----------2-3-2h3p2-----------0----------------0------------------|  
 B|-------1-4-----------4-----4-----0------------0---3-3-1-0----------|  
 G|-----2-----------------4-----------0--------0----------------------|  
 D|-1-4---------------------4-----------2-----------------------------|  
 A|-----------------------------------------2-------------------------|  
 E|-----------------------------0---------3-0----------0--------------|  




 e|---------------0---------------0---------0-------------3p2---------|  
 B|-----------------3-3-------0-1---1---------2---------2-------------|  
 G|-1-----------1-----------2---------2---2-----3-----3---------------|  
 D|---3-2-0-2-3-----------2-------------2---------4-5-----------------|  
 A|-------------------0-----------0-----------------------------------|  
 E|-------------------------------------------2-----------2-----------|  




 e|-------2-2-------3-2-----------------------------------------------|  
 B|-2-------------4-----4---------------------------------------------|  
 G|---3---------2-------2---------------------------------------------|  
 D|-----2-----4-------------------------------------------------------|  
 A|---------2---------2-----------------------------------------------|  
 E|-------------------------------------------------------------------|  





Final:   



e|-----------5h7-8----------0-0-3-3----------------2-2---------------|  
B|-5-------5--------0-1-0-0------------0-1-0-0-4-4---0---8-----------|  
G|---7-5-5----------------0---------0----2---2---2---2---------------|  
D|------------------------2---------2----1---1---4---1---------------|  
A|---0-----------------------------------2---------------------------|  
E|--------------------0-----------0----------------------------------|  


   

e|-0-----------------7-12-15-19-5(HA)--------------------------------|  
B|-----------------8-------------------------------------------------|  
G|-------------4-9---------------------------------------------------|  
D|---------2-5-------------------------------------------------------|  
A|-------2-----------------------------------------------------------|  
E|---0h3------------------------------0------------------------------|  

  

top 5 | chico buarque
top mpb
Outras músicas do artista letras do(a) Chico Buarque
Top cifras »Top artistas »
Petaxxon Comunicação Online
Cifras.com.br - Melhor e mais completo site de cifras e tablaturas do Brasil
Mais de 1 milhão de acordes de músicas cadastradas desde 2003
As informações contidas no nosso site são colaborações de seus usuários e podem conter erros, sendo assim, não nos responsabilizamos sobre nenhuma destas.
close
menos
mais
close
Cor dos acordes:

Cor da letra:

 

save
close
close
 
redimensionar