Cifras e Tablaturas
Chill Bump

Chill Bump

Just A Sample

Cifras Cancelar Versão de Impressão Print

Chill Bump - Just A Sample

Tom:

  • 0:00 / 0:00
  			Intro: 
       x7            x1 
E|-------------|-----------| 
B|---------10--|-----------| 
G|--9----------|--9--9--9--| 
D|-------------|-----------| 
A|-------------|-----------| 
E|-------------|-----------| 

Whole Song: 
E|------------------------------------------------------------| 
B|-----12--10-------12--10--12-------12--10-------------------| 
G|--9------------9----------------9----------11p9h11p9h11--9--| 
D|------------------------------------------------------------| 
A|------------------------------------------------------------| 
E|------------------------------------------------------------| 

Break: 
             x4 
E|--------------------------| 
B|--------------------------| 
G|--------------------------| 
D|--------------2-----------| 
A|--------0--2-----2--0-----| 
E|--0--3-----------------3--| 


Alarm clock buzzing, I smack the snooze button. 
I choose to relax and do nothing, 
get up in the afternoon, fuck it. I laugh at you suckers 
busting your ass for loot like absolute muppets. 
I hang with rappers and cool rastas, abuse absolute vodka, 
get smashed like a true rocker. 
Drive after the zubrowska, 
Shoot past a few coppers faster than Schumacker. 
I used to get smashed in the school locker, 
Now I do shows, and hoes flash me they two knockers. 
Rock on - Always keep accelerating. 
Every day I party and fall asleep at 7 am. Celebrating. 

(Celebrating) 

Celebrating, my little life as it lasts. 
I love my life, I’m living every minute like it’s my last. 
I’m fucking Young, I’m strong and I’m tireless. 
I’m high on sex and my broad is a lioness. 
While you normal guys take orders behind a desk, 
you’re always replying yes - I’m sure that you’ll die of stress. 
I record and write songs, my office is my adress. 
I am my own boss, I’ve always got time to rest. I am blessed. 

(This is just a sample… of the life I lead) 

Listen bro, this is freedom. 
I hit the road, head for a distant region. 
I kill a show, leave the whole venue screaming, 
then I’m heading home, grinning, feeling like a different being. 
Rap’s my sport and identity, performing’s my therapy, 
I’ll always rhyme merrily ‘til I’m 45, steadily. 
I’ll definitely tour ‘til I’m 70. 
And when I’ll be exhausted, I’ll always find energy ! 

(This is just a sample… of the life I lead) 
    	

enviado porenviado por: hugo_rodrigues
cifra enviadaCorrigida por: sem correções
logo top cifrasComente
ico música do artistaMúsicas deste artista
ico curtiuCurtiu?
ico destaqueDestaque
Petaxxon Comunicação Online

Cifras.com.br - Melhor e mais completo site de cifras e tablaturas do Brasil Mais de 1 milhão de acordes de músicas cadastradas desde 2003
As informações contidas no nosso site são colaborações de seus usuários e podem conter erros, sendo assim, não nos responsabilizamos sobre nenhuma destas.

close
menos
mais
close
Cor dos acordes:

Cor da letra:

close
Alinhar acordes a direita Alinhar acordes a esquerda Alinhar acordes em baixo Alinhar acordes no topo
close
  Mostrar todos os acordes Esconder acordes muito fáceis Esconder acordes fáceis Esconder acordes intermediários
redimensionar
glossário