Cifras e Tablaturas
Chris Daughtry

Chris Daughtry

What Have We Become

Cifras Cancelar Versão de Impressão

Chris Daughtry - What Have We Become

Tom: D

  			
Tuning: D Standard ( D - G - C - F - A - D) 


                                 Intro/Verse 
          E5    Cmaj7 D5                        

e|--------0-----0-------------------------------------------------------------| 
B|--------0-----0-------------------------------------------------------------| 
G|--------9-----5-----7----------------------2-----5--------------------------| 
D|--------9-----5-----7---repeat-------------2-----5--x2----------------------| 
A|--------7-----3-----5----------------------0-----3--------------------------| 
E|--------0-------------------------------------------------------------------| 

                                   Chorus 

e|---------------------------------------------------------------------------| 
B|---------------------------------------------------------------------------| 
G|-------5-5--------7--------9----5--7---------------------------------------| 
D|-2-2---5-5---5-5--7--------9----5--7---------------------------------------| 
A|-2-2---3-3-x-5-5--5--x2----7----3--5--x2-----------------------------------| 
E|-0-0---------3-3--5--------------------------------------------------------| 

                                     Bridge 

e|---------------------------------------------------------------------------| 
B|---------------------------------------------------------------------------| 
G|----5---7-------5-7-9-12-12---5--7--5---7----------------------------------| 
D|----5---7---2---x-x-x-x--x----5--7--5---7----------------------------------| 
A|----3---5---2---3/5/7/10-10---3--5--3---5----------------------------------| 
E|------------0--------------------------------------------------------------| 

                                    Solo 


e|-------------12-14br-12----------------------------------------------------| 
B|---15b17r---------------15br-12--------------------------------------------| 
G|----------12---------------------14-12-0-11-0-7-0-4------------------------| 
D|---------------------------------------------------------------------------| 
A|---------------------------------------------------------------------------| 
E|---------------------------------------------------------------------------| 

e|---------------------------------------------------------------------------| 
B|---------------------------------------------------------------------------| 
G|---------------------------------------------------------------------------| 
D|-5-0-7-0-2-4-5-4-2-0-2br~--------------------------------------------------| 
A|---------------------------------------------------------------------------| 
E|---------------------------------------------------------------------------|  
    	
fixar
fixar inscrever-se

enviado porenviado por: aleffederico
cifra enviadaCorrigida por: sem correções
logo top cifrasComente
ico música do artistaMúsicas deste artista
ico curtiuCurtiu?
ico destaqueDestaque
Petaxxon Comunicação Online

Cifras.com.br - Melhor e mais completo site de cifras e tablaturas do Brasil Mais de 1 milhão de acordes de músicas cadastradas desde 2003
As informações contidas no nosso site são colaborações de seus usuários e podem conter erros, sendo assim, não nos responsabilizamos sobre nenhuma destas.

close
menos
mais
close
Cor dos acordes:

Cor da letra:

close
Alinhar acordes a direita Alinhar acordes a esquerda Alinhar acordes em baixo Alinhar acordes no topo
close
  Mostrar todos os acordes Esconder acordes muito fáceis Esconder acordes fáceis Esconder acordes intermediários
redimensionar
glossário