Cifras e Tablaturas
Chris Ladoux

Chris Ladoux

County Fair

Cifras Cancelar Versão de Impressão Print

Chris Ladoux - County Fair

Tom:

  • 0:00 / 0:00
  			Key: A/Strum Pattern:  ↓ ≠ ↑↓ ≠ ↑↓↑↓ ≠ ↓↑↓ ≠ ↓↑↓ ≠ 
 
{A}Been workin? like a dog {E}slavin? on the {A}fenceline,  
Stretchin? those wires {E}tight.  
{A}Diggin?and tappin? and {E}sweatin? in the {A}sunshine,  
{D}But I get {E}off to{A}night.  
  
{A}I gotta date with a girl a {E}purty rancher?s{A}daughter,  
Green eyes and golden {E}hair.  
Gonna {A}pick her up at eight after {E}some soap and {A}water,  
And we?re {D}headin? to the {E}county {A}fair.  
  
Chorus    
Well there?s a {E}full moon in the {A}western sky,  
And there?s {E}magic in the {A}air.  
Ain?t nothin?{D}I know of can {A}make you fall in love,  
Like a {D}night at the {E}county {A}fair.  
 
SOLO 
e|--------------------------------------------------------------------| 
B|--------------------------------------------------------------------| 
G|--------------------------------------------------------------------| 
D|--------------------------------------------------------------------| 
A|-4^2-0---------0----4^2-0---------0--4^2-0---------0--------------| 
E|-------0-2-2-4----0-------0-2-2-4----------0-2-2-4----------------| 
 
{A}Well we walk through the midway the {E}lights and the {A}laughter,  
She puts her little hand in {E}mine.  
Well {A}she don?t act like she {E}knows what I?m {A}after,  
But to{D}night I?m gonna {E}make her {A}mine.  
  
{A}You know the tunnel of love well it {E}ain?t my {A}style,  
So I take her on the ferris {E}wheel.  
Way {A}up in the sky with the {E}stars in her {A}eyes,  
I?m gonna {D}tell her just {E}how I {A}feel.  
  
Chorus    
Well there?s a {E}full moon in the {A}western sky,  
And there?s {E}magic in the {A}air.  
Ain?t nothin?{D}I know of can {A}make you fall in love,  
Like a {D}night at the {E}county {A}fair.  
 
SOLO 
e|--------------------------------------------------------------------| 
B|--------------------------------------------------------------------| 
G|--------------------------------------------------------------------| 
D|--------------------------------------------------------------------| 
A|-4^2-0---------0----4^2-0---------0--4^2-0---------0--------------| 
E|-------0-2-2-4----0-------0-2-2-4----------0-2-2-4----------------| 
  
{A}Well I know Monday mornin? I?ll be {E}back on the {A}fenceline,  
But it?ll be all {E}right.  
Cause that {A}purty little girl says she?s{E}gonna be {A}all mine,  
I?m {D}see her next {E}Friday {A}night.  
  
Chorus    
Well there?s a {E}full moon in the {A}western sky,  
And there?s {E}magic in the {A}air.  
Ain?t nothin?{D}I know of can {A}make you fall in love,  
Like a {D}night at the {E}county {A}fair.  
  
Ain?t nothin?{D}I know of can make you {A}fall in love,  
Like a {D}night at the {E}county {A}fair.  
SOLO 
e|--------------------------------------------------------------------| 
B|--------------------------------------------------------------------| 
G|--------------------------------------------------------------------| 
D|--------------------------------------------------------------------| 
A|-4^2-0---------0----4^2-0---------0--4^2-0---------0--------------| 
E|-------0-2-2-4----0-------0-2-2-4----------0-2-2-4----------------| 
  
  
+----CHORDS USED----+ 
|A - X 0 2 2 2 0    | 
|E - 0 2 2 1 0 0    | 
|D - X X 0 2 3 2    | 
+-------------------+ 
 

    	

enviado porenviado por: BearChips
cifra enviadaCorrigida por: sem correções
logo top cifrasComente
ico música do artistaMúsicas deste artista
ico curtiuCurtiu?
ico destaqueDestaque
Petaxxon Comunicação Online

Cifras.com.br - Melhor e mais completo site de cifras e tablaturas do Brasil Mais de 1 milhão de acordes de músicas cadastradas desde 2003
As informações contidas no nosso site são colaborações de seus usuários e podem conter erros, sendo assim, não nos responsabilizamos sobre nenhuma destas.

close
menos
mais
close
Cor dos acordes:

Cor da letra:

close
Alinhar acordes a direita Alinhar acordes a esquerda Alinhar acordes em baixo Alinhar acordes no topo
close
  Mostrar todos os acordes Esconder acordes muito fáceis Esconder acordes fáceis Esconder acordes intermediários
redimensionar
glossário