Cifras e Tablaturas
Cifras Cancelar Versão de Impressão
cifras

Chris Tomlin - Home

fixar na tela  
Exibindo: vídeo-aula ver clipes redimensionar

Tom:

  Intro 

e|-0--0--0--0-|-4--4--4--4-|-4--4--4--4-|-0--0--0--0-| 
B|-0--0--0--0-|-4--4--4--4-|-5--5--5--5-|-0--0--0--0-| 
G|-1--1--1--1-|-4--4--4--4-|-4--4--4--4-|-2--2--2--2-| 
D|-2--2--2--2-|-4--4--4--4-|-6--6--6--6-|-2--2--2--2-| 
A|-2--2--2--2-|-6--6--6--6-|-4--4--4--4-|-0--0--0--0-| 
E|-0--0--0--0-|-4--4--4--4-|------------|------------| 

verse 1 

e|-0----------------------|-4----------|-4----------------| 
B|-0--0--0--0--0--------0-|-4----------|-5--0--0--------0-| 
G|-1-----------------1----|-4--1-----1-|-4-----------1----| 
D|-2--------------2-------|-4-----4----|-6--------2-------| 
A|-2----------------------|-6----------|-4----------------| 
E|-0----------------------|-4----------|------------------| 

e|-0----------|-0-------------|-4-------------| 
B|-0----------|-0--0--0--0--0-|-4-------------| 
G|-2--1-----1-|-1-------------|-4--1--1--1----| 
D|-2-----4----|-2-----------2-|-4-----------2-| 
A|-0----------|-2-------------|-6-------------| 
E|------------|-0-------------|-4-------------| 

e|-4----|-0--0--0--0-| 
B|-5----|-0--0--0--0-| 
G|-4--1-|-2--2--2--2-| 
D|-6----|-2--2--2--2-| 
A|-4----|-0--0--0--0-| 
E|------|------------| 

verse 2 

e|-0-------------------|-4----------|-4----------------|-0----------| 
B|-0--0--0--0--------0-|-4--------1-|-5--0--0--0-----0-|-0----------| 
G|-1--------------1----|-4--1-------|-4----------------|-2--1-----1-| 
D|-2-----------2-------|-4-----2----|-6-----------2----|-2-----2----| 
A|-2-------------------|-6----------|-4----------------|-0----------| 
E|-0-------------------|-4----------|------------------|------------| 

e|-0--0--0--0--0--0----|-4--2--2--0-|-4--2--0-|-0--2--------0-| 
B|-0-----------------2-|-4----------|-5-------|-0-----0--2----| 
G|-1-------------------|-4----------|-4-------|-2-------------| 
D|-2-------------------|-4----------|-6-------|-2-------------| 
A|-2-------------------|-6----------|-4-------|-0-------------| 
E|-0-------------------|-4----------|---------|---------------| 

Chorus 

e|-0--------0--0--0-------|-4--------0--0--0-----0-|-4-----0--0--0--2----| 
B|-0--0--2-----------2--0-|-4--0--2-----------2----|-5--2-----------4--0-| 
G|-1----------------------|-4----------------------|-4--------------4----| 
D|-2----------------------|-4----------------------|-6--------------4----| 
A|-2----------------------|-6----------------------|-4--------------2----| 
E|-0----------------------|-4----------------------|---------------------| 

e|-0-----0--2--0-------|-0-----------0--0--0-|-4-----------0-----2-| 
B|-0--2-----------2--0-|-0--0--0--2----------|-4--0--0--2-----2----| 
G|-2-------------------|-1-------------------|-4-------------------| 
D|-2-------------------|-2-------------------|-4-------------------| 
A|-0-------------------|-2-------------------|-6-------------------| 
E|---------------------|-0-------------------|-4-------------------| 

e|-4--0-----2----|----0----|---0---2---|-4--4--4--0-|-0--0--0--2-|-4--4--4--0-| 
B|-5-----4--4--2-|----0----|---0---4---|-5--5--5--0-|-0--0--0--4-|-5--5--5--0-| 
G|-4--------4----|----2----|---1---4---|-4--4--4--2-|-1--1--1--4-|-4--4--4--2-| 
D|-6--------4----|----2----|---2---4---|-6--6--6--2-|-2--2--2--4-|-6--6--6--2-| 
A|-4--------2----|----0----|---2---2---|-4--4--4--0-|-2--2--2--2-|-4--4--4--0-| 
E|---------------|---------|---0-------|------------|-0--0--0----|------------| 

verse 3 

e|-0-------------------|-4----------|-4----------------|-0----------| 
B|-0--0--0--0--------0-|-4--------1-|-5--0--0--0-----0-|-0----------| 
G|-1--------------1----|-4--1-------|-4----------------|-2--1-----1-| 
D|-2-----------2-------|-4-----2----|-6-----------2----|-2-----2----| 
A|-2-------------------|-6----------|-4----------------|-0----------| 
E|-0-------------------|-4----------|------------------|------------| 

e|-0--0--0--0--0--0----|-4--2--2--0-|-4--2--0-|-0--2--------0-| 
B|-0-----------------2-|-4----------|-5-------|-0-----0--2----| 
G|-1-------------------|-4----------|-4-------|-2-------------| 
D|-2-------------------|-4----------|-6-------|-2-------------| 
A|-2-------------------|-6----------|-4-------|-0-------------| 
E|-0-------------------|-4----------|---------|---------------| 

Chorus 

e|-0--------0--0--0-------|-4--------0--0--0-----0-|-4-----0--0--0--2----| 
B|-0--0--2-----------2--0-|-4--0--2-----------2----|-5--2-----------4--0-| 
G|-1----------------------|-4----------------------|-4--------------4----| 
D|-2----------------------|-4----------------------|-6--------------4----| 
A|-2----------------------|-6----------------------|-4--------------2----| 
E|-0----------------------|-4----------------------|---------------------| 

e|-0-----0--2--0-------|-0-----------0--0--0-|-4-----------0-----2-| 
B|-0--2-----------2--0-|-0--0--0--2----------|-4--0--0--2-----2----| 
G|-2-------------------|-1-------------------|-4-------------------| 
D|-2-------------------|-2-------------------|-4-------------------| 
A|-0-------------------|-2-------------------|-6-------------------| 
E|---------------------|-0-------------------|-4-------------------| 

e|-4--0-----2----|----0----| 
B|-5-----4--4--2-|----0----| 
G|-4--------4----|----2----| 
D|-6--------4----|----2----| 
A|-4--------2----|----0----| 
E|---------------|---------| 

Bridge 

e|-0--0--0--0-|-0--2--2--0-|-0--0--0-------|-0--0--2--2--0-----0-| 
B|-0----------|-2----------|-2--------0--0-|-2--------------0----| 
G|-1----------|-2----------|-2-------------|-2-------------------| 
D|-2----------|-2----------|-2-------------|-2-------------------| 
A|-2----------|-0----------|-2-------------|-3-------------------| 
E|-4----------|------------|---------------|---------------------| 

e|-0--0--0--0-|-2--0--2--2--0--2-|-4--0--0--2--2--0-|-0--------0-| 
B|-0----------|-2----------------|-5-----------4----|-0--0--2----| 
G|-1----------|-2----------------|-4-----------4----|-2----------| 
D|-2----------|-2----------------|-6-----------4----|-2----------| 
A|-2----------|-4----------------|-4-----------2----|-0----------| 
E|-4----------|-2----------------|------------------|------------| 

Chorus 

e|-0--------0--0--0-------|-4--------0--0--0-----0-|-4-----0--0--0--2----| 
B|-0--0--2-----------2--0-|-4--0--2-----------2----|-5--2-----------4--0-| 
G|-1----------------------|-4----------------------|-4--------------4----| 
D|-2----------------------|-4----------------------|-6--------------4----| 
A|-2----------------------|-6----------------------|-4--------------2----| 
E|-0----------------------|-4----------------------|---------------------| 

e|-0-----0--2--0-------|-0-----------0--0--0-|-4-----------0-----2-| 
B|-0--2-----------2--0-|-0--0--0--2----------|-4--0--0--2-----2----| 
G|-2-------------------|-1-------------------|-4-------------------| 
D|-2-------------------|-2-------------------|-4-------------------| 
A|-0-------------------|-2-------------------|-6-------------------| 
E|---------------------|-0-------------------|-4-------------------| 

e|-4--0-----2----|----0----| 
B|-5-----4--4--2-|----0----| 
G|-4--------4----|----2----| 
D|-6--------4----|----2----| 
A|-4--------2----|----0----| 
E|---------------|---------| 

Outro 

e|-4--0--1--2--4-|-0--4--2--0-|-4--2--0--0-|-4--0--2-----0-|-0--0--0--2--4-| 
B|-5--------4----|-0----------|----------0-|-4--------2----|-0-------------| 
G|-4--------4----|-2----------|----------1-|-5-------------|-2-------------| 
D|-6--------4----|-2----------|----------2-|-4-------------|-2-------------| 
A|-4--------2----|-0----------|----------2-|-6-------------|-0-------------| 
E|---------------|------------|----------0-|-4-------------|---------------| 

e|-0--4--2--0-|-4--4--2--0--0-|-4---2-|---0---| 
B|-0----------|-4-------------|-5---4-|---0---| 
G|-1----------|-4-------------|-4---4-|---2---| 
D|-2----------|-4-------------|-6---4-|---2---| 
A|-2----------|-6-------------|-4---2-|---0---| 
E|-0----------|-4-------------|-------|-------| 
| 
  

top 5 | chris tomlin
top gospel
Outras músicas do artista letras do(a) Chris Tomlin
Top cifras »Top artistas »
Petaxxon Comunicação Online
Cifras.com.br - Melhor e mais completo site de cifras e tablaturas do Brasil
Mais de 1 milhão de acordes de músicas cadastradas desde 2003
As informações contidas no nosso site são colaborações de seus usuários e podem conter erros, sendo assim, não nos responsabilizamos sobre nenhuma destas.
close
menos
mais
close
Cor dos acordes:

Cor da letra:

 

save
close
close
 
redimensionar