Cifras e Tablaturas
Chuck Berry

Chuck Berry

Johnny B. Goode Tablatura Verificada

Cifras Cancelar Versão de Impressão
cifras

Chuck Berry - Johnny B. Goode

fixar na tela  
Exibindo: vídeo-aula ver clipes redimensionar
  
Standard Tuning: EADGBe  

Intro 


-----------5/6--6-6--5/6--6-6--5/6--6-6------------------------- 
------6-8--5/6--6-6--5/6--6-6--5/6--6-6--9-8-6------------------ 
-6h7--------------------------------------------6h7------------- 
-----------------------------------------------------8---------- 
---------------------------------------------------------------- 
---------------------------------------------------------------- 

---------------------------------------------------------------- 
------------------------------6-8-6----------------------------- 
-------------------------3/7--7-7-7-5\3------------------------- 
-8--8-8--8--8-8--8--8-8------------------5---------------------- 
-8--8-8--8--8-8--8--8-8----------------------------------------- 
---------------------------------------------------------------- 

-------------------------------------------6-|------------------ 
-------6--------6--------6--------6--------6-|------------------ 
-8b10-----8b10-----8b10-----8b10-----8b10----|-(2x)------------- 
---------------------------------------------|------------------ 
---------------------------------------------|------------------ 
---------------------------------------------|------------------ 

-------------------------------------------6-|------------------ 
-------6--------6--------6--------6--------6-|------------------ 
-8b10-----8b10-----8b10-----8b10-----8b10----|-(2x)------------- 
---------------------------------------------|------------------ 
---------------------------------------------|------------------ 
---------------------------------------------|------------------ 


------6-------8-6----------------6------------------------------ 
--------9-8-6-----9-8-6--------6---9-8-6-------6-------6-------- 
-8b10--------------------8-6h7------------8b10----8b10---8-6---- 
--------------------------------------------------------------8~ 
---------------------------------------------------------------- 
---------------------------------------------------------------- 


Chorus 


-----------------------------------------------|---------------- 
----2/9--9--9--9---11--------------------------|---------------- 
----3/10-10-10-10--10--------------------------|---------------- 
-----------------------------------------------|-(2x)----------- 
-8-----------------------8--8--10--8--8--8--10-|---------------- 
-6-----------------------6--6--6---6--6--6--6--|---------------- 

---------------------------------------------------------------- 
----2/9--9--9--9---11------------------------------------------- 
----3/10-10-10-10--10------------------------------------------- 
-------------------------8--8--10-8---8--8--10--6--------------- 
-8-----------------------6--6--6--6---6--6--6---8--------------- 
-6-------------------------------------------------------------- 


---------------------------------------------------------------- 
--2/9--9--9--9---11--------------------------------------------- 
--3/10-10-10-10--10--------------------------------------------- 
---------------------------------------------------------------- 
----------------------8--8--10--8--8--8--10--8------------------ 
----------------------6--6--6---6--6--6--6---6------------------ 


-----------------------------|--------------------------|------- 
-2/9--9--9--9---11/---8b9r8~-|--------------------------|------- 
-3/10-10-10-10--10/---8b9r8~-|--------------------------|------- 
-----------------------------|--------------------------|-(2x)-- 
-----------------------------|-8--8--10--8--8--8--10--8-|------- 
-----------------------------|-6--6--6---6--6--6--6---6-|------- 


Chorus 2 


----------------------------------------------------|----------- 
---6--------6--------6------------------------------|----------- 
------8b10-----8b10-----8b10------------------------|----------- 
----------------------------------------------------|-(2x)------ 
-8----------------------------8--8--10--8--8--8--10-|----------- 
-6----------------------------6--6--6---6--6--6--6--|----------- 


---------------------------------------------------------------- 
---6--------6--------6------------------------------------------ 
------8b10-----8b10-----8b10------------------------------------ 
------------------------------8--8--10--8--8--8--10--8---------- 
-8----------------------------6--6--6---6--6--6--6---6---------- 
-6-------------------------------------------------------------- 


---------------------------------------------------------------- 
-6--------6--------6-------------------------------------------- 
----8b10-----8b10-----8b10-------------------------------------- 
---------------------------------------------------------------- 
----------------------------8--8--10--8--8--8--10--8------------ 
----------------------------6--6--6---6--6--6--6---6------------ 


---------------------------------------------------------------- 
-6--------6--------6--------6--------6-------------------------- 
----8b10-----8b10-----8b10-----8b10-----8b10-------------------- 
---------------------------------------------------------------- 
---------------------------------------------------------------- 
---------------------------------------------------------------- 

--------------------------|------------------------------------- 
--------------------------|------------------------------------- 
--------------------------|------------------------------------- 
--------------------------|-(2x)-------------------------------- 
-8--8--10--8---8--8--10-8-|------------------------------------- 
-6--6--6---6---6--6--6--6-|------------------------------------- 


--------------------------|------------------------------------- 
--------------------------|------------------------------------- 
--------------------------|------------------------------------- 
--------------------------|-(2x)-------------------------------- 
-8--8--10--8---8--8--10-8-|------------------------------------- 
-6--6--6---6---6--6--6--6-|------------------------------------- 


Solo Part 1 

-----6---5/6-6-6-6-6------------5/6-6-6-6-6--------------------- 
-----6---5/6-6-6-6-6--8-6-------5/6-6-6-6-6--8-6---------------- 
-2/7---7--------------8-6h7------------------8-6h7-------------- 
-----------------------------8----------------------8----------- 
---------------------------------------------------------------- 
---------------------------------------------------------------- 

-6------------6-----------6-6-6-6--------6---8------------------- 
-6----6-------6---6-------6-6-6-6----------9---9-8-6------------ 
----8-6h7-------8-6h7--------------8b10---------------8-6h7----- 
-----------8-----------8---------------------------------------- 
---------------------------------------------------------------- 
---------------------------------------------------------------- 

-----6-6-6----------6-6-6-6-6-------6-------6-6-6-6-6----------- 
---6--------8-6---6-----------8-6-----8-6---6-6-6-6-6--8-6------ 
-7--------------7-----------------7-------7------------8-6h7---- 
-------------------------------------------------------------8-- 
---------------------------------------------------------------- 
---------------------------------------------------------------- 


---------------------------------------------------------------- 
-8b9---8b9---8b9---8b9-r8--8-----6------------------------------ 
-8b10--8b10--8b10--8b10r8--8--6--6h7---------------------------- 
-------------------------------------8-------------------------- 
---------------------------------------------------------------- 
---------------------------------------------------------------- 


Solo Part 2 


-5/6-6-6-6-6------------6-6-6-6-6------------------------------- 
-5/6-6-6-6-6-8--6-------6-6-6-6-6--8-6-------------------------- 
-------------8--6h7----------------8-6h7------------------------ 
--------------------8---------------------8--------------------- 
---------------------------------------------------------------- 
---------------------------------------------------------------- 


-6-----------6-------------------------------------------------- 
-6-8-6-------6-8-6------8b9---8b9---8b9---8--------------------- 
---8-6h7-------8-6h7----8b10--8b10--8b10--8--------------------- 
---------8-----------8------------------------------------------ 
---------------------------------------------------------------- 
---------------------------------------------------------------- 


------6--------6------6--------6-|------------------------------ 
------6--------6------6--------6-|------------------------------ 
-8b10----8b10----8b10----8b10----|-(2x)------------------------- 
---------------------------------|------------------------------ 
---------------------------------|------------------------------ 
---------------------------------|------------------------------ 


------6-6-6--9b10--6-8-6---------------------------------------- 
------6-6-6--9b10--6-8-6-9-8-6--8b9--6--8b10-6-8b9--6----------- 
-8b10--------------------9-8-6--8b9-----8b10---8b9-------------- 
---------------------------------------------------------------- 
---------------------------------------------------------------- 
---------------------------------------------------------------- 


-----------6--6--6---------------------------------------------- 
-8-6-------6--6--6--8--6---------------------------------------- 
-8-6h7-7------------8--6h7-------------------------------------- 
-------8---------------------8~--------------------------------- 
---------------------------------------------------------------- 
---------------------------------------------------------------- 

Final 


---------------------------------------------------------------- 
-----------------2/9---9---9---9---11--9------------------------ 
-----------------3/10--10--10--10--10--10----------------------- 
---------------------------------------------------------------- 
-8--8--10--8--8------------------------------------------------- 
-6--6---6--6--6------------------------------------------------- 


---------------------------------------------------------------- 
--------------------------------2/9--9--9--9---11--9------------ 
--------------------------------3/10-10-10-10--10--10----------- 
---------------------------------------------------------------- 
-8--8--8--10-8---8--8--10-8--8---------------------------------- 
-6--6--6--6--6---6--6--6--6--6---------------------------------- 


---------------------------------------------------------------- 
----------------------------------2/9--9--9--9---11--9---------- 
----------------------------------3/10-10-10-10--10--10--------- 
-----------------8--8--10--8--8--------------------------------- 
-8--8--8--10-8---6--6--6---6--6--------------------------------- 
-6--6--6--6--6-------------------------------------------------- 


---------------------------------------------------------------- 
----------------------------------2/9--9--9--9---11--9---------- 
----------------------------------3/10-10-10-10--10--10--------- 
-8--8--8--10--8------------------------------------------------- 
-6--6--6--6---6--8--8--10--8--8--------------------------------- 
-----------------6--6--6---6--6--------------------------------- 


-----------------------------|---------------------------------- 
-8/9---8/9----9---9---9---11-|---------------------------------- 
-9/10--9/10---10--10--10--10-|-3--0-----3--0-----3--0-----3~---- 
-----------------------------|-------3--------3--------3-------- 
-----------------------------|---------------------------------- 
-----------------------------|---------------------------------- 

  

top 5 | chuck berry
top rock'n roll
Outras músicas do artista letras do(a) Chuck Berry
Top cifras »Top artistas »
Petaxxon Comunicação Online
Cifras.com.br - Melhor e mais completo site de cifras e tablaturas do Brasil
Mais de 1 milhão de acordes de músicas cadastradas desde 2003
As informações contidas no nosso site são colaborações de seus usuários e podem conter erros, sendo assim, não nos responsabilizamos sobre nenhuma destas.
close
menos
mais
close
Cor dos acordes:

Cor da letra:

 

save
close
close
 
redimensionar