Cifras e Tablaturas
Chuzinho

Chuzinho

A Flor E O Beija Flor

Cifras Cancelar Versão de Impressão
cifras

Chuzinho - A Flor E O Beija Flor

fixar na tela  
Exibindo: vídeo-aula ver clipes redimensionar
       C        G 
E|------------------------------------------| 
B|-------1--------3------------3------------| 
G|-----0--------0---0--------0---0----------| 
D|---2--------0-------0----0-------0--------| 
A|-3----------------------------------------| 
E|----------3------------3------------------| 
 
Dedilhado Parte 2 de 3 

 
     Dm 
E|-------1------------1---------------------| 
B|-----3---3--------3---3-------------------| 
G|---2-------2----2-------2-----------------| 
D|-0------------0---------------------------| 
A|------------------------------------------| 
E|------------------------------------------| 
 


Dedilhado Parte 3 de 3 

 
     F 
E|------------------------------------------| 
B|-------1------------1---------------------| 
G|-----2---2--------2---2-------------------| 
D|---3-------3----3-------3-----------------| 
A|------------------------------------------| 
E|-1------------1---------------------------| 
 



Intro - Solo (Violão 2): 
Parte 1 de 3 

 
E|-------0--3-1-0-1-1p0-------------------------------| 
B|-1---1----------------1-1/3---3---------------------| 
G|---0------------------------0---0-------------------| 
D|----------------------------------------------------| 
A|----------------------------------------------------| 
E|----------------------------------------------------| 
 


Parte 2 de 3 

 
E|----------------------------------------------------| 
B|-3--------------------------------------------------| 
G|---5-4-5-5p4---------7------------------------------| 
D|-------------5-5/7-7--------------------------------| 
A|----------------------------------------------------| 
E|----------------------------------------------------| 
 


Parte 3 de 3 

 
E|-1-1/3-3/5-5---5-----8-----16-----------------------| 
B|-3-3/5-5/6-6-6---/10----------18--------------------| 
G|----------------------------------------------------| 
D|----------------------------------------------------| 
A|----------------------------------------------------| 
E|----------------------------------------------------| 
 


Primeira Parte: 
Parte 1 de 3 

 
     C            G 
E|------------------------------------------| 
B|-------1------------3---------------------| 
G|-----0---0--------0---0-------------------| 
D|---2-------2----0-------0-----------------| 
A|-3----------------------------------------| 
E|--------------3---------------------------| 
 


Parte 2 de 3 

 
     Am                   G/B 
E|------------------------------------------| 
B|-------1------------1--3------------------| 
G|-----2---2--------2----0------------------| 
D|---2-------2----2------0------------------| 
A|-0------------0--------2------------------| 
E|------------------------------------------| 
 


Repete Parte 1 de 3 

 
     C            G 
E|------------------------------------------| 
B|-------1------------3---------------------| 
G|-----0---0--------0---0-------------------| 
D|---2-------2----0-------0-----------------| 
A|-3----------------------------------------| 
E|--------------3---------------------------| 
 


Parte 3 de 3 

 
     Am 
E|------------------------------------------| 
B|-------1------------1---------------------| 
G|-----2---2--------2---2-------------------| 
D|---2-------2----2-------2-----------------| 
A|-0------------0---------------------------| 
E|------------------------------------------| 
 


C                    G 
Essa é uma velha história 
                  Am 
De uma flor e um beija-flor 
               G/B  C 
Que conheceram o  amor 
      G               Am 
Numa noite fria de outono 

Pré-refrão: 
Parte 1 de 5 

 
     Dm 
E|-------1------------1---------------------| 
B|-----3---3--------3---3-------------------| 
G|---2-------2----2-------2-----------------| 
D|-0------------0---------------------------| 
A|------------------------------------------| 
E|------------------------------------------| 
 


Parte 2 de 5 

 
     Am 
E|------------------------------------------| 
B|-------1------------1---------------------| 
G|-----2---2--------2---2-------------------| 
D|---2-------2----2-------2-----------------| 
A|-0------------0---------------------------| 
E|------------------------------------------| 
 


Parte 3 de 5 

 
     F 
E|------------------------------------------| 
B|-------1------------1---------------------| 
G|-----2---2--------2---2-------------------| 
D|---3-------3----3-------3-----------------| 
A|------------------------------------------| 
E|-1------------1---------------------------| 
 


Parte 4 de 5 

 
     G 
E|------------------------------------------| 
B|-------3------------3---------------------| 
G|-----0---0--------0---0-------------------| 
D|---0-------0----0-------0-----------------| 
A|------------------------------------------| 
E|-3------------3---------------------------| 
 


Repete Parte 1 de 5 

 
     Dm 
E|-------1------------1---------------------| 
B|-----3---3--------3---3-------------------| 
G|---2-------2----2-------2-----------------| 
D|-0------------0---------------------------| 
A|------------------------------------------| 
E|------------------------------------------| 
 


Repete Parte 3 de 5 

 
     F 
E|------------------------------------------| 
B|-------1------------1---------------------| 
G|-----2---2--------2---2-------------------| 
D|---3-------3----3-------3-----------------| 
A|------------------------------------------| 
E|-1------------1---------------------------| 
 


Repete Parte 1 de 5 

 
     Dm 
E|-------1------------1---------------------| 
B|-----3---3--------3---3-------------------| 
G|---2-------2----2-------2-----------------| 
D|-0------------0---------------------------| 
A|------------------------------------------| 
E|------------------------------------------| 
 


Parte 5 de 5 

 
     G 
E|--------------3---------------------------| 
B|-------3------3---------------------------| 
G|-----0---0----0---------------------------| 
D|---0-------0------------------------------| 
A|------------------------------------------| 
E|-3----------------------------------------| 
 



Refrão: 

 
     C 
E|-------0------------0---------------------| 
B|-----1---1--------1---1-------------------| 
G|---0-------0----0-------0-----------------| 
D|------------------------------------------| 
A|-3------------3---------------------------| 
E|------------------------------------------| 
  
  

cifra enviadasem correções
enviado porenviada por:andrsouza
top 5 | chuzinho
top rock'n roll
Outras músicas do artista letras do(a) Chuzinho
Top cifras »Top artistas »
Petaxxon Comunicação Online
Cifras.com.br - Melhor e mais completo site de cifras e tablaturas do Brasil
Mais de 1 milhão de acordes de músicas cadastradas desde 2003
As informações contidas no nosso site são colaborações de seus usuários e podem conter erros, sendo assim, não nos responsabilizamos sobre nenhuma destas.
close
menos
mais
close
Cor dos acordes:

Cor da letra:

 

save
close
close
 
redimensionar